  0
SECTION
  2
HEADER
  9
$ACADVER
  1
AC1015
  9
$ACADMAINTVER
 70
     6
  9
$DWGCODEPAGE
  3
ANSI_932
  9
$INSBASE
 10
0.0
 20
0.0
 30
0.0
  9
$EXTMIN
 10
4672.783602209951
 20
121.1437874289504
 30
0.0
  9
$EXTMAX
 10
8943.502520836871
 20
3047.293639225074
 30
0.0
  9
$LIMMIN
 10
0.0
 20
0.0
  9
$LIMMAX
 10
4200.0
 20
2970.0
  9
$ORTHOMODE
 70
     0
  9
$REGENMODE
 70
     1
  9
$FILLMODE
 70
     1
  9
$QTEXTMODE
 70
     0
  9
$MIRRTEXT
 70
     1
  9
$LTSCALE
 40
3.0
  9
$ATTMODE
 70
     1
  9
$TEXTSIZE
 40
2.5
  9
$TRACEWID
 40
1.0
  9
$TEXTSTYLE
  7
STANDARD
  9
$CLAYER
  8
OBJECT
  9
$CELTYPE
  6
BYLAYER
  9
$CECOLOR
 62
   256
  9
$CELTSCALE
 40
1.0
  9
$DISPSILH
 70
     0
  9
$DIMSCALE
 40
15.0
  9
$DIMASZ
 40
2.5
  9
$DIMEXO
 40
0.625
  9
$DIMDLI
 40
3.75
  9
$DIMRND
 40
0.0
  9
$DIMDLE
 40
0.0
  9
$DIMEXE
 40
1.25
  9
$DIMTP
 40
0.0
  9
$DIMTM
 40
0.0
  9
$DIMTXT
 40
2.5
  9
$DIMCEN
 40
2.5
  9
$DIMTSZ
 40
0.0
  9
$DIMTOL
 70
     0
  9
$DIMLIM
 70
     0
  9
$DIMTIH
 70
     0
  9
$DIMTOH
 70
     0
  9
$DIMSE1
 70
     0
  9
$DIMSE2
 70
     0
  9
$DIMTAD
 70
     1
  9
$DIMZIN
 70
     8
  9
$DIMBLK
  1

  9
$DIMASO
 70
     1
  9
$DIMSHO
 70
     1
  9
$DIMPOST
  1

  9
$DIMAPOST
  1

  9
$DIMALT
 70
     0
  9
$DIMALTD
 70
     4
  9
$DIMALTF
 40
0.0394
  9
$DIMLFAC
 40
1.0
  9
$DIMTOFL
 70
     1
  9
$DIMTVP
 40
0.0
  9
$DIMTIX
 70
     0
  9
$DIMSOXD
 70
     0
  9
$DIMSAH
 70
     0
  9
$DIMBLK1
  1

  9
$DIMBLK2
  1

  9
$DIMSTYLE
  2
STANDARD
  9
$DIMCLRD
 70
     0
  9
$DIMCLRE
 70
     0
  9
$DIMCLRT
 70
     0
  9
$DIMTFAC
 40
1.0
  9
$DIMGAP
 40
0.625
  9
$DIMJUST
 70
     0
  9
$DIMSD1
 70
     0
  9
$DIMSD2
 70
     0
  9
$DIMTOLJ
 70
     1
  9
$DIMTZIN
 70
     0
  9
$DIMALTZ
 70
     0
  9
$DIMALTTZ
 70
     0
  9
$DIMUPT
 70
     0
  9
$DIMDEC
 70
     4
  9
$DIMTDEC
 70
     4
  9
$DIMALTU
 70
     8
  9
$DIMALTTD
 70
     4
  9
$DIMTXSTY
  7
STANDARD
  9
$DIMAUNIT
 70
     0
  9
$DIMADEC
 70
     0
  9
$DIMALTRND
 40
0.0
  9
$DIMAZIN
 70
     0
  9
$DIMDSEP
 70
    46
  9
$DIMATFIT
 70
     3
  9
$DIMFRAC
 70
     0
  9
$DIMLDRBLK
  1

  9
$DIMLUNIT
 70
     6
  9
$DIMLWD
 70
    -2
  9
$DIMLWE
 70
    -2
  9
$DIMTMOVE
 70
     0
  9
$LUNITS
 70
     2
  9
$LUPREC
 70
     4
  9
$SKETCHINC
 40
1.0
  9
$FILLETRAD
 40
210.0
  9
$AUNITS
 70
     0
  9
$AUPREC
 70
     0
  9
$MENU
  1
acad
  9
$ELEVATION
 40
0.0
  9
$PELEVATION
 40
0.0
  9
$THICKNESS
 40
0.0
  9
$LIMCHECK
 70
     0
  9
$CHAMFERA
 40
10.0
  9
$CHAMFERB
 40
10.0
  9
$CHAMFERC
 40
20.0
  9
$CHAMFERD
 40
0.0
  9
$SKPOLY
 70
     0
  9
$TDCREATE
 40
2452179.387794213
  9
$TDUCREATE
 40
2452179.012794213
  9
$TDUPDATE
 40
2454544.460874618
  9
$TDUUPDATE
 40
2454544.085874618
  9
$TDINDWG
 40
0.8299625347
  9
$TDUSRTIMER
 40
0.8299625347
  9
$USRTIMER
 70
     1
  9
$ANGBASE
 50
0.0
  9
$ANGDIR
 70
     0
  9
$PDMODE
 70
     0
  9
$PDSIZE
 40
0.0
  9
$PLINEWID
 40
0.0
  9
$SPLFRAME
 70
     0
  9
$SPLINETYPE
 70
     6
  9
$SPLINESEGS
 70
     8
  9
$HANDSEED
  5
1D43
  9
$SURFTAB1
 70
     6
  9
$SURFTAB2
 70
     6
  9
$SURFTYPE
 70
     6
  9
$SURFU
 70
     6
  9
$SURFV
 70
     6
  9
$UCSBASE
  2

  9
$UCSNAME
  2

  9
$UCSORG
 10
0.0
 20
0.0
 30
0.0
  9
$UCSXDIR
 10
1.0
 20
0.0
 30
0.0
  9
$UCSYDIR
 10
0.0
 20
1.0
 30
0.0
  9
$UCSORTHOREF
  2

  9
$UCSORTHOVIEW
 70
     0
  9
$UCSORGTOP
 10
0.0
 20
0.0
 30
0.0
  9
$UCSORGBOTTOM
 10
0.0
 20
0.0
 30
0.0
  9
$UCSORGLEFT
 10
0.0
 20
0.0
 30
0.0
  9
$UCSORGRIGHT
 10
0.0
 20
0.0
 30
0.0
  9
$UCSORGFRONT
 10
0.0
 20
0.0
 30
0.0
  9
$UCSORGBACK
 10
0.0
 20
0.0
 30
0.0
  9
$PUCSBASE
  2

  9
$PUCSNAME
  2

  9
$PUCSORG
 10
0.0
 20
0.0
 30
0.0
  9
$PUCSXDIR
 10
1.0
 20
0.0
 30
0.0
  9
$PUCSYDIR
 10
0.0
 20
1.0
 30
0.0
  9
$PUCSORTHOREF
  2

  9
$PUCSORTHOVIEW
 70
     0
  9
$PUCSORGTOP
 10
0.0
 20
0.0
 30
0.0
  9
$PUCSORGBOTTOM
 10
0.0
 20
0.0
 30
0.0
  9
$PUCSORGLEFT
 10
0.0
 20
0.0
 30
0.0
  9
$PUCSORGRIGHT
 10
0.0
 20
0.0
 30
0.0
  9
$PUCSORGFRONT
 10
0.0
 20
0.0
 30
0.0
  9
$PUCSORGBACK
 10
0.0
 20
0.0
 30
0.0
  9
$USERI1
 70
     0
  9
$USERI2
 70
     0
  9
$USERI3
 70
     0
  9
$USERI4
 70
     0
  9
$USERI5
 70
     0
  9
$USERR1
 40
0.0
  9
$USERR2
 40
0.0
  9
$USERR3
 40
0.0
  9
$USERR4
 40
0.0
  9
$USERR5
 40
0.0
  9
$WORLDVIEW
 70
     1
  9
$SHADEDGE
 70
     3
  9
$SHADEDIF
 70
    70
  9
$TILEMODE
 70
     1
  9
$MAXACTVP
 70
    48
  9
$PINSBASE
 10
0.0
 20
0.0
 30
0.0
  9
$PLIMCHECK
 70
     0
  9
$PEXTMIN
 10
1.000000000000000E+20
 20
1.000000000000000E+20
 30
1.000000000000000E+20
  9
$PEXTMAX
 10
-1.000000000000000E+20
 20
-1.000000000000000E+20
 30
-1.000000000000000E+20
  9
$PLIMMIN
 10
0.0
 20
0.0
  9
$PLIMMAX
 10
420.0
 20
297.0
  9
$UNITMODE
 70
     0
  9
$VISRETAIN
 70
     1
  9
$PLINEGEN
 70
     0
  9
$PSLTSCALE
 70
     1
  9
$TREEDEPTH
 70
  3020
  9
$CMLSTYLE
  2
STANDARD
  9
$CMLJUST
 70
     0
  9
$CMLSCALE
 40
20.0
  9
$PROXYGRAPHICS
 70
     1
  9
$MEASUREMENT
 70
     1
  9
$CELWEIGHT
370
    -1
  9
$ENDCAPS
280
     0
  9
$JOINSTYLE
280
     0
  9
$LWDISPLAY
290
     0
  9
$INSUNITS
 70
     0
  9
$HYPERLINKBASE
  1

  9
$STYLESHEET
  1

  9
$XEDIT
290
     1
  9
$CEPSNTYPE
380
     0
  9
$PSTYLEMODE
290
     1
  9
$FINGERPRINTGUID
  2
{B3742404-E3C1-49B6-9F57-E05E5010AC1E}
  9
$VERSIONGUID
  2
{BDFF2DFD-F677-4A93-8EF0-4429471CEE74}
  9
$EXTNAMES
290
     1
  9
$PSVPSCALE
 40
0.0
  9
$OLESTARTUP
290
     0
  0
ENDSEC
  0
SECTION
  2
CLASSES
  0
CLASS
  1
LWPOLYLINE
  2
AcDbPolyline
  3
AutoCAD 2000
 90
    32768
280
     0
281
     1
  0
CLASS
  1
ACDBDICTIONARYWDFLT
  2
AcDbDictionaryWithDefault
  3
AutoCAD 2000
 90
        0
280
     0
281
     0
  0
CLASS
  1
ACDBPLACEHOLDER
  2
AcDbPlaceHolder
  3
AutoCAD 2000
 90
        0
280
     0
281
     0
  0
CLASS
  1
LAYOUT
  2
AcDbLayout
  3
AutoCAD 2000
 90
        0
280
     0
281
     0
  0
ENDSEC
  0
SECTION
  2
TABLES
  0
TABLE
  2
VPORT
  5
8
330
0
100
AcDbSymbolTable
 70
     2
  0
VPORT
  5
1D42
330
8
100
AcDbSymbolTableRecord
100
AcDbViewportTableRecord
  2
*Active
 70
     0
 10
0.0
 20
0.0
 11
1.0
 21
1.0
 12
6956.302496235124
 22
1529.291879565057
 13
0.0
 23
0.0
 14
10.0
 24
10.0
 15
10.0
 25
10.0
 16
0.0
 26
0.0
 36
1.0
 17
0.0
 27
0.0
 37
0.0
 40
3393.464868522223
 41
1.731203007518796
 42
50.0
 43
0.0
 44
0.0
 50
0.0
 51
0.0
 71
     0
 72
   100
 73
     1
 74
     1
 75
     0
 76
     0
 77
     0
 78
     0
281
     0
 65
     1
110
0.0
120
0.0
130
0.0
111
1.0
121
0.0
131
0.0
112
0.0
122
1.0
132
0.0
 79
     0
146
0.0
  0
ENDTAB
  0
TABLE
  2
LTYPE
  5
5
330
0
100
AcDbSymbolTable
 70
    46
  0
LTYPE
  5
12
330
5
100
AcDbSymbolTableRecord
100
AcDbLinetypeTableRecord
  2
BYBLOCK
 70
     0
  3

 72
    65
 73
     0
 40
0.0
  0
LTYPE
  5
13
330
5
100
AcDbSymbolTableRecord
100
AcDbLinetypeTableRecord
  2
BYLAYER
 70
     0
  3

 72
    65
 73
     0
 40
0.0
  0
LTYPE
  5
14
330
5
100
AcDbSymbolTableRecord
100
AcDbLinetypeTableRecord
  2
CONTINUOUS
 70
     0
  3
Solid line
 72
    65
 73
     0
 40
0.0
  0
LTYPE
  5
BC
330
5
100
AcDbSymbolTableRecord
100
AcDbLinetypeTableRecord
  2
ACAD_ISO02W100
 70
     0
  3
ISO dash __ __ __ __ __ __ __ __ __ __ __ __ __
 72
    65
 73
     2
 40
15.0
 49
12.0
 74
     0
 49
-3.0
 74
     0
  0
LTYPE
  5
BD
330
5
100
AcDbSymbolTableRecord
100
AcDbLinetypeTableRecord
  2
ACAD_ISO03W100
 70
     0
  3
ISO dash space __    __    __    __    __    __
 72
    65
 73
     2
 40
30.0
 49
12.0
 74
     0
 49
-18.0
 74
     0
  0
LTYPE
  5
BE
330
5
100
AcDbSymbolTableRecord
100
AcDbLinetypeTableRecord
  2
ACAD_ISO04W100
 70
     0
  3
ISO long-dash dot ____ . ____ . ____ . ____ . _
 72
    65
 73
     4
 40
30.5
 49
24.0
 74
     0
 49
-3.0
 74
     0
 49
0.5
 74
     0
 49
-3.0
 74
     0
  0
LTYPE
  5
BF
330
5
100
AcDbSymbolTableRecord
100
AcDbLinetypeTableRecord
  2
ACAD_ISO05W100
 70
     0
  3
ISO long-dash double-dot ____ .. ____ .. ____ .
 72
    65
 73
     8
 40
37.5
 49
24.0
 74
     0
 49
-3.0
 74
     0
 49
0.5
 74
     0
 49
-3.0
 74
     0
 49
0.5
 74
     0
 49
-3.0
 74
     0
 49
0.5
 74
     0
 49
-3.0
 74
     0
  0
LTYPE
  5
C0
330
5
100
AcDbSymbolTableRecord
100
AcDbLinetypeTableRecord
  2
ACAD_ISO06W100
 70
     0
  3
ISO long-dash triple-dot ____ ... ____ ... ____
 72
    65
 73
     8
 40
37.5
 49
24.0
 74
     0
 49
-3.0
 74
     0
 49
0.5
 74
     0
 49
-3.0
 74
     0
 49
0.5
 74
     0
 49
-3.0
 74
     0
 49
0.5
 74
     0
 49
-3.0
 74
     0
  0
LTYPE
  5
C1
330
5
100
AcDbSymbolTableRecord
100
AcDbLinetypeTableRecord
  2
ACAD_ISO07W100
 70
     0
  3
ISO dot . . . . . . . . . . . . . . . . . . . .
 72
    65
 73
     2
 40
3.5
 49
0.5
 74
     0
 49
-3.0
 74
     0
  0
LTYPE
  5
C2
330
5
100
AcDbSymbolTableRecord
100
AcDbLinetypeTableRecord
  2
ACAD_ISO08W100
 70
     0
  3
ISO long-dash short-dash ____ __ ____ __ ____ _
 72
    65
 73
     4
 40
36.0
 49
24.0
 74
     0
 49
-3.0
 74
     0
 49
6.0
 74
     0
 49
-3.0
 74
     0
  0
LTYPE
  5
C3
330
5
100
AcDbSymbolTableRecord
100
AcDbLinetypeTableRecord
  2
ACAD_ISO09W100
 70
     0
  3
ISO long-dash double-short-dash ____ __ __ ____
 72
    65
 73
     6
 40
45.0
 49
24.0
 74
     0
 49
-3.0
 74
     0
 49
6.0
 74
     0
 49
-3.0
 74
     0
 49
6.0
 74
     0
 49
-3.0
 74
     0
  0
LTYPE
  5
C4
330
5
100
AcDbSymbolTableRecord
100
AcDbLinetypeTableRecord
  2
ACAD_ISO10W100
 70
     0
  3
ISO dash dot __ . __ . __ . __ . __ . __ . __ .
 72
    65
 73
     4
 40
18.5
 49
12.0
 74
     0
 49
-3.0
 74
     0
 49
0.5
 74
     0
 49
-3.0
 74
     0
  0
LTYPE
  5
C5
330
5
100
AcDbSymbolTableRecord
100
AcDbLinetypeTableRecord
  2
ACAD_ISO11W100
 70
     0
  3
ISO double-dash dot __ __ . __ __ . __ __ . __ 
 72
    65
 73
     6
 40
33.5
 49
12.0
 74
     0
 49
-3.0
 74
     0
 49
12.0
 74
     0
 49
-3.0
 74
     0
 49
0.5
 74
     0
 49
-3.0
 74
     0
  0
LTYPE
  5
C6
330
5
100
AcDbSymbolTableRecord
100
AcDbLinetypeTableRecord
  2
ACAD_ISO12W100
 70
     0
  3
ISO dash double-dot __ . . __ . . __ . . __ . .
 72
    65
 73
     6
 40
22.0
 49
12.0
 74
     0
 49
-3.0
 74
     0
 49
0.5
 74
     0
 49
-3.0
 74
     0
 49
0.5
 74
     0
 49
-3.0
 74
     0
  0
LTYPE
  5
C7
330
5
100
AcDbSymbolTableRecord
100
AcDbLinetypeTableRecord
  2
ACAD_ISO13W100
 70
     0
  3
ISO double-dash double-dot __ __ . . __ __ . . 
 72
    65
 73
     8
 40
37.0
 49
12.0
 74
     0
 49
-3.0
 74
     0
 49
12.0
 74
     0
 49
-3.0
 74
     0
 49
0.5
 74
     0
 49
-3.0
 74
     0
 49
0.5
 74
     0
 49
-3.0
 74
     0
  0
LTYPE
  5
C8
330
5
100
AcDbSymbolTableRecord
100
AcDbLinetypeTableRecord
  2
ACAD_ISO14W100
 70
     0
  3
ISO dash triple-dot __ . . . __ . . . __ . . . 
 72
    65
 73
     8
 40
25.5
 49
12.0
 74
     0
 49
-3.0
 74
     0
 49
0.5
 74
     0
 49
-3.0
 74
     0
 49
0.5
 74
     0
 49
-3.0
 74
     0
 49
0.5
 74
     0
 49
-3.0
 74
     0
  0
LTYPE
  5
C9
330
5
100
AcDbSymbolTableRecord
100
AcDbLinetypeTableRecord
  2
ACAD_ISO15W100
 70
     0
  3
ISO double-dash triple-dot __ __ . . . __ __ . 
 72
    65
 73
    10
 40
40.49999999999999
 49
12.0
 74
     0
 49
-3.0
 74
     0
 49
12.0
 74
     0
 49
-3.0
 74
     0
 49
0.5
 74
     0
 49
-3.0
 74
     0
 49
0.5
 74
     0
 49
-3.0
 74
     0
 49
0.5
 74
     0
 49
-3.0
 74
     0
  0
LTYPE
  5
CA
330
5
100
AcDbSymbolTableRecord
100
AcDbLinetypeTableRecord
  2
BATTING
 70
     0
  3
Batting SSSSSSSSSSSSSSSSSSSSSSSSSSSSSSSSSSSSSSS
 72
    65
 73
     4
 40
10.16253999999999
 49
0.00254
 74
     0
 49
-2.54
 74
     4
 75
   134
340
BB
 46
2.54
 50
0.0
 44
-2.54
 45
0.0
 49
-5.08
 74
     4
 75
   134
340
BB
 46
2.54
 50
180.0
 44
2.54
 45
0.0
 49
-2.54
 74
     0
  0
LTYPE
  5
CB
330
5
100
AcDbSymbolTableRecord
100
AcDbLinetypeTableRecord
  2
BORDER
 70
     0
  3
Border __ __ . __ __ . __ __ . __ __ . __ __ .
 72
    65
 73
     6
 40
44.45
 49
12.7
 74
     0
 49
-6.349999999999999
 74
     0
 49
12.7
 74
     0
 49
-6.349999999999999
 74
     0
 49
0.0
 74
     0
 49
-6.349999999999999
 74
     0
  0
LTYPE
  5
CC
330
5
100
AcDbSymbolTableRecord
100
AcDbLinetypeTableRecord
  2
BORDER2
 70
     0
  3
Border (.5x) __.__.__.__.__.__.__.__.__.__.__.
 72
    65
 73
     6
 40
22.225
 49
6.349999999999999
 74
     0
 49
-3.174999999999999
 74
     0
 49
6.349999999999999
 74
     0
 49
-3.174999999999999
 74
     0
 49
0.0
 74
     0
 49
-3.174999999999999
 74
     0
  0
LTYPE
  5
CD
330
5
100
AcDbSymbolTableRecord
100
AcDbLinetypeTableRecord
  2
BORDERX2
 70
     0
  3
Border (2x) ____  ____  .  ____  ____  .  ___
 72
    65
 73
     6
 40
88.9
 49
25.4
 74
     0
 49
-12.7
 74
     0
 49
25.4
 74
     0
 49
-12.7
 74
     0
 49
0.0
 74
     0
 49
-12.7
 74
     0
  0
LTYPE
  5
CE
330
5
100
AcDbSymbolTableRecord
100
AcDbLinetypeTableRecord
  2
CENTER
 70
     0
  3
Center ____ _ ____ _ ____ _ ____ _ ____ _ ____
 72
    65
 73
     4
 40
50.8
 49
31.75
 74
     0
 49
-6.349999999999999
 74
     0
 49
6.349999999999999
 74
     0
 49
-6.349999999999999
 74
     0
  0
LTYPE
  5
CF
330
5
100
AcDbSymbolTableRecord
100
AcDbLinetypeTableRecord
  2
CENTER2
 70
     0
  3
Center (.5x) ___ _ ___ _ ___ _ ___ _ ___ _ ___
 72
    65
 73
     4
 40
28.57499999999999
 49
19.05
 74
     0
 49
-3.174999999999999
 74
     0
 49
3.174999999999999
 74
     0
 49
-3.174999999999999
 74
     0
  0
LTYPE
  5
D0
330
5
100
AcDbSymbolTableRecord
100
AcDbLinetypeTableRecord
  2
CENTERX2
 70
     0
  3
Center (2x) ________  __  ________  __  _____
 72
    65
 73
     4
 40
101.6
 49
63.5
 74
     0
 49
-12.7
 74
     0
 49
12.7
 74
     0
 49
-12.7
 74
     0
  0
LTYPE
  5
D1
330
5
100
AcDbSymbolTableRecord
100
AcDbLinetypeTableRecord
  2
DASHDOT
 70
     0
  3
Dash dot __ . __ . __ . __ . __ . __ . __ . __
 72
    65
 73
     4
 40
25.4
 49
12.7
 74
     0
 49
-6.349999999999999
 74
     0
 49
0.0
 74
     0
 49
-6.349999999999999
 74
     0
  0
LTYPE
  5
D2
330
5
100
AcDbSymbolTableRecord
100
AcDbLinetypeTableRecord
  2
DASHDOT2
 70
     0
  3
Dash dot (.5x) _._._._._._._._._._._._._._._.
 72
    65
 73
     4
 40
12.7
 49
6.349999999999999
 74
     0
 49
-3.174999999999999
 74
     0
 49
0.0
 74
     0
 49
-3.174999999999999
 74
     0
  0
LTYPE
  5
D3
330
5
100
AcDbSymbolTableRecord
100
AcDbLinetypeTableRecord
  2
DASHDOTX2
 70
     0
  3
Dash dot (2x) ____  .  ____  .  ____  .  ___
 72
    65
 73
     4
 40
50.8
 49
25.4
 74
     0
 49
-12.7
 74
     0
 49
0.0
 74
     0
 49
-12.7
 74
     0
  0
LTYPE
  5
D4
330
5
100
AcDbSymbolTableRecord
100
AcDbLinetypeTableRecord
  2
DASHED
 70
     0
  3
Dashed __ __ __ __ __ __ __ __ __ __ __ __ __ _
 72
    65
 73
     2
 40
19.04999999999999
 49
12.7
 74
     0
 49
-6.349999999999999
 74
     0
  0
LTYPE
  5
D5
330
5
100
AcDbSymbolTableRecord
100
AcDbLinetypeTableRecord
  2
DASHED2
 70
     0
  3
Dashed (.5x) _ _ _ _ _ _ _ _ _ _ _ _ _ _ _ _ _
 72
    65
 73
     2
 40
9.524999999999998
 49
6.349999999999999
 74
     0
 49
-3.174999999999999
 74
     0
  0
LTYPE
  5
D6
330
5
100
AcDbSymbolTableRecord
100
AcDbLinetypeTableRecord
  2
DASHEDX2
 70
     0
  3
Dashed (2x) ____  ____  ____  ____  ____  ___
 72
    65
 73
     2
 40
38.09999999999999
 49
25.4
 74
     0
 49
-12.7
 74
     0
  0
LTYPE
  5
D7
330
5
100
AcDbSymbolTableRecord
100
AcDbLinetypeTableRecord
  2
DIVIDE
 70
     0
  3
Divide ____ . . ____ . . ____ . . ____ . . ____
 72
    65
 73
     6
 40
31.74999999999999
 49
12.7
 74
     0
 49
-6.349999999999999
 74
     0
 49
0.0
 74
     0
 49
-6.349999999999999
 74
     0
 49
0.0
 74
     0
 49
-6.349999999999999
 74
     0
  0
LTYPE
  5
D8
330
5
100
AcDbSymbolTableRecord
100
AcDbLinetypeTableRecord
  2
DIVIDE2
 70
     0
  3
Divide (.5x) __..__..__..__..__..__..__..__.._
 72
    65
 73
     6
 40
15.87499999999999
 49
6.349999999999999
 74
     0
 49
-3.174999999999999
 74
     0
 49
0.0
 74
     0
 49
-3.174999999999999
 74
     0
 49
0.0
 74
     0
 49
-3.174999999999999
 74
     0
  0
LTYPE
  5
D9
330
5
100
AcDbSymbolTableRecord
100
AcDbLinetypeTableRecord
  2
DIVIDEX2
 70
     0
  3
Divide (2x) ________  .  .  ________  .  .  _
 72
    65
 73
     6
 40
63.49999999999999
 49
25.4
 74
     0
 49
-12.7
 74
     0
 49
0.0
 74
     0
 49
-12.7
 74
     0
 49
0.0
 74
     0
 49
-12.7
 74
     0
  0
LTYPE
  5
DA
330
5
100
AcDbSymbolTableRecord
100
AcDbLinetypeTableRecord
  2
DOT
 70
     0
  3
Dot . . . . . . . . . . . . . . . . . . . . . .
 72
    65
 73
     2
 40
6.349999999999999
 49
0.0
 74
     0
 49
-6.349999999999999
 74
     0
  0
LTYPE
  5
DB
330
5
100
AcDbSymbolTableRecord
100
AcDbLinetypeTableRecord
  2
DOT2
 70
     0
  3
Dot (.5x) .....................................
 72
    65
 73
     2
 40
3.174999999999999
 49
0.0
 74
     0
 49
-3.174999999999999
 74
     0
  0
LTYPE
  5
DC
330
5
100
AcDbSymbolTableRecord
100
AcDbLinetypeTableRecord
  2
DOTX2
 70
     0
  3
Dot (2x) .  .  .  .  .  .  .  .  .  .  .  .  . 
 72
    65
 73
     2
 40
12.7
 49
0.0
 74
     0
 49
-12.7
 74
     0
  0
LTYPE
  5
DD
330
5
100
AcDbSymbolTableRecord
100
AcDbLinetypeTableRecord
  2
FENCELINE1
 70
     0
  3
Fenceline circle ----0-----0----0-----0----0---
 72
    65
 73
     4
 40
36.82999999999999
 49
6.349999999999999
 74
     0
 49
-2.54
 74
     4
 75
   133
340
BB
 46
2.54
 50
0.0
 44
-2.54
 45
0.0
 49
-2.54
 74
     0
 49
25.4
 74
     0
  0
LTYPE
  5
DE
330
5
100
AcDbSymbolTableRecord
100
AcDbLinetypeTableRecord
  2
FENCELINE2
 70
     0
  3
Fenceline square ----[]-----[]----[]-----[]----
 72
    65
 73
     4
 40
36.82999999999999
 49
6.349999999999999
 74
     0
 49
-2.54
 74
     4
 75
   132
340
BB
 46
2.54
 50
0.0
 44
-2.54
 45
0.0
 49
-2.54
 74
     0
 49
25.4
 74
     0
  0
LTYPE
  5
DF
330
5
100
AcDbSymbolTableRecord
100
AcDbLinetypeTableRecord
  2
GAS_LINE
 70
     0
  3
Gas line ----GAS----GAS----GAS----GAS----GAS---
 72
    65
 73
     3
 40
24.13
 49
12.7
 74
     0
 49
-5.08
 74
     2
 75
     0
340
F
 46
2.54
 50
0.0
 44
-2.54
 45
-1.27
  9
GAS
 49
-6.349999999999999
 74
     0
  0
LTYPE
  5
E0
330
5
100
AcDbSymbolTableRecord
100
AcDbLinetypeTableRecord
  2
HIDDEN
 70
     0
  3
Hidden __ __ __ __ __ __ __ __ __ __ __ __ __ _
 72
    65
 73
     2
 40
9.524999999999998
 49
6.349999999999999
 74
     0
 49
-3.174999999999999
 74
     0
  0
LTYPE
  5
E1
330
5
100
AcDbSymbolTableRecord
100
AcDbLinetypeTableRecord
  2
HIDDEN2
 70
     0
  3
Hidden (.5x) _ _ _ _ _ _ _ _ _ _ _ _ _ _ _ _ _
 72
    65
 73
     2
 40
4.762499999999999
 49
3.174999999999999
 74
     0
 49
-1.587499999999999
 74
     0
  0
LTYPE
  5
E2
330
5
100
AcDbSymbolTableRecord
100
AcDbLinetypeTableRecord
  2
HIDDENX2
 70
     0
  3
Hidden (2x) ____ ____ ____ ____ ____ ____ ____
 72
    65
 73
     2
 40
19.04999999999999
 49
12.7
 74
     0
 49
-6.349999999999999
 74
     0
  0
LTYPE
  5
E3
330
5
100
AcDbSymbolTableRecord
100
AcDbLinetypeTableRecord
  2
HOT_WATER_SUPPLY
 70
     0
  3
Hot water supply ---- HW ---- HW ---- HW ----
 72
    65
 73
     3
 40
22.86
 49
12.7
 74
     0
 49
-5.08
 74
     2
 75
     0
340
F
 46
2.54
 50
0.0
 44
-2.54
 45
-1.27
  9
HW
 49
-5.08
 74
     0
  0
LTYPE
  5
E4
330
5
100
AcDbSymbolTableRecord
100
AcDbLinetypeTableRecord
  2
PHANTOM
 70
     0
  3
Phantom ______  __  __  ______  __  __  ______
 72
    65
 73
     6
 40
63.5
 49
31.75
 74
     0
 49
-6.349999999999999
 74
     0
 49
6.349999999999999
 74
     0
 49
-6.349999999999999
 74
     0
 49
6.349999999999999
 74
     0
 49
-6.349999999999999
 74
     0
  0
LTYPE
  5
E5
330
5
100
AcDbSymbolTableRecord
100
AcDbLinetypeTableRecord
  2
PHANTOM2
 70
     0
  3
Phantom (.5x) ___ _ _ ___ _ _ ___ _ _ ___ _ _
 72
    65
 73
     6
 40
31.75
 49
15.875
 74
     0
 49
-3.174999999999999
 74
     0
 49
3.174999999999999
 74
     0
 49
-3.174999999999999
 74
     0
 49
3.174999999999999
 74
     0
 49
-3.174999999999999
 74
     0
  0
LTYPE
  5
E6
330
5
100
AcDbSymbolTableRecord
100
AcDbLinetypeTableRecord
  2
PHANTOMX2
 70
     0
  3
Phantom (2x) ____________    ____    ____   _
 72
    65
 73
     6
 40
127.0
 49
63.5
 74
     0
 49
-12.7
 74
     0
 49
12.7
 74
     0
 49
-12.7
 74
     0
 49
12.7
 74
     0
 49
-12.7
 74
     0
  0
LTYPE
  5
E7
330
5
100
AcDbSymbolTableRecord
100
AcDbLinetypeTableRecord
  2
TRACKS
 70
     0
  3
Tracks -|-|-|-|-|-|-|-|-|-|-|-|-|-|-|-|-|-|-|-|
 72
    65
 73
     2
 40
7.62
 49
3.81
 74
     4
 75
   130
340
BB
 46
6.349999999999999
 50
0.0
 44
0.0
 45
0.0
 49
3.81
 74
     0
  0
LTYPE
  5
E8
330
5
100
AcDbSymbolTableRecord
100
AcDbLinetypeTableRecord
  2
ZIGZAG
 70
     0
  3
Zig zag /\/\/\/\/\/\/\/\/\/\/\/\/\/\/\/\/\/\/\/
 72
    65
 73
     4
 40
20.32254
 49
0.00254
 74
     0
 49
-5.08
 74
     4
 75
   131
340
BB
 46
5.08
 50
0.0
 44
-5.08
 45
0.0
 49
-10.16
 74
     4
 75
   131
340
BB
 46
5.08
 50
180.0
 44
5.08
 45
0.0
 49
-5.08
 74
     0
  0
ENDTAB
  0
TABLE
  2
LAYER
  5
2
330
0
100
AcDbSymbolTable
 70
    10
  0
LAYER
  5
E
330
2
100
AcDbSymbolTableRecord
100
AcDbLayerTableRecord
  2
0
 70
     0
 62
     7
  6
CONTINUOUS
370
    -3
390
1301
  0
LAYER
  5
20
330
2
100
AcDbSymbolTableRecord
100
AcDbLayerTableRecord
  2
DEFPOINTS
 70
     0
 62
     7
  6
CONTINUOUS
290
     0
370
    -3
390
1301
  0
LAYER
  5
21
330
2
100
AcDbSymbolTableRecord
100
AcDbLayerTableRecord
  2
OBJECT
 70
     0
 62
     7
  6
CONTINUOUS
370
    -3
390
1301
  0
LAYER
  5
E9
330
2
100
AcDbSymbolTableRecord
100
AcDbLayerTableRecord
  2
基準線
 70
     0
 62
     1
  6
CONTINUOUS
370
    -3
390
1301
  0
LAYER
  5
EA
330
2
100
AcDbSymbolTableRecord
100
AcDbLayerTableRecord
  2
上線
 70
     0
 62
     7
  6
CONTINUOUS
370
    -3
390
1301
  0
LAYER
  5
EB
330
2
100
AcDbSymbolTableRecord
100
AcDbLayerTableRecord
  2
点線
 70
     0
 62
     5
  6
HIDDEN
370
    -3
390
1301
  0
LAYER
  5
EC
330
2
100
AcDbSymbolTableRecord
100
AcDbLayerTableRecord
  2
中心線
 70
     0
 62
     6
  6
CENTER
370
    -3
390
1301
  0
LAYER
  5
132F
330
2
100
AcDbSymbolTableRecord
100
AcDbLayerTableRecord
  2
上書線
 70
     0
 62
     7
  6
CONTINUOUS
370
    -3
390
1301
  0
LAYER
  5
1330
330
2
100
AcDbSymbolTableRecord
100
AcDbLayerTableRecord
  2
WUWAGAKI
 70
     0
 62
     7
  6
CONTINUOUS
370
    -3
390
1301
  0
LAYER
  5
15BE
330
2
100
AcDbSymbolTableRecord
100
AcDbLayerTableRecord
  2
上書き線
 70
     0
 62
     7
  6
CONTINUOUS
370
    -3
390
1301
  0
ENDTAB
  0
TABLE
  2
STYLE
  5
3
330
0
100
AcDbSymbolTable
 70
     3
  0
STYLE
  5
F
330
3
100
AcDbSymbolTableRecord
100
AcDbTextStyleTableRecord
  2
STANDARD
 70
     0
 40
0.0
 41
1.0
 50
0.0
 71
     0
 42
2.5
  3
MS PMincho.ttf
  4

1001
ACAD
1000
MS PMincho
1071
    32786
  0
STYLE
  5
22
330
3
100
AcDbSymbolTableRecord
100
AcDbTextStyleTableRecord
  2
ADESK1
 70
     0
 40
0.0
 41
1.0
 50
0.0
 71
     0
 42
5.0
  3
romans
  4
bigfont
  0
STYLE
  5
BB
330
3
100
AcDbSymbolTableRecord
100
AcDbTextStyleTableRecord
  2

 70
     1
 40
0.0
 41
1.0
 50
0.0
 71
     0
 42
2.5
  3
ltypeshp.shx
  4

  0
ENDTAB
  0
TABLE
  2
VIEW
  5
6
330
0
100
AcDbSymbolTable
 70
     0
  0
ENDTAB
  0
TABLE
  2
UCS
  5
7
330
0
100
AcDbSymbolTable
 70
     0
  0
ENDTAB
  0
TABLE
  2
APPID
  5
9
330
0
100
AcDbSymbolTable
 70
     1
  0
APPID
  5
10
330
9
100
AcDbSymbolTableRecord
100
AcDbRegAppTableRecord
  2
ACAD
 70
     0
  0
ENDTAB
  0
TABLE
  2
DIMSTYLE
  5
A
330
0
100
AcDbSymbolTable
 70
     2
100
AcDbDimStyleTable
 71
     1
340
1D
  0
DIMSTYLE
105
1D
330
A
100
AcDbSymbolTableRecord
100
AcDbDimStyleTableRecord
  2
STANDARD
 70
     0
340
F
  0
DIMSTYLE
105
23
330
A
100
AcDbSymbolTableRecord
100
AcDbDimStyleTableRecord
  2
JIS
 70
     0
 41
2.5
 42
1.0
 43
7.0
 44
1.0
 73
     0
 74
     0
 77
     1
 78
     8
140
2.5
141
0.0
143
0.0394
147
0.0
172
     1
174
     1
175
     1
340
F
  0
ENDTAB
  0
TABLE
  2
BLOCK_RECORD
  5
1
330
0
100
AcDbSymbolTable
 70
     1
  0
BLOCK_RECORD
  5
18
330
1
100
AcDbSymbolTableRecord
100
AcDbBlockTableRecord
  2
*MODEL_SPACE
340
1304
  0
BLOCK_RECORD
  5
15
330
1
100
AcDbSymbolTableRecord
100
AcDbBlockTableRecord
  2
*PAPER_SPACE
340
1305
  0
BLOCK_RECORD
  5
24
330
1
100
AcDbSymbolTableRecord
100
AcDbBlockTableRecord
  2
JIS_A3
340
0
  0
ENDTAB
  0
ENDSEC
  0
SECTION
  2
BLOCKS
  0
BLOCK
  5
19
330
18
100
AcDbEntity
  8
0
100
AcDbBlockBegin
  2
*MODEL_SPACE
 70
     0
 10
0.0
 20
0.0
 30
0.0
  3
*MODEL_SPACE
  1

  0
ENDBLK
  5
1A
330
18
100
AcDbEntity
  8
0
100
AcDbBlockEnd
  0
BLOCK
  5
16
330
15
100
AcDbEntity
 67
     1
  8
0
100
AcDbBlockBegin
  2
*PAPER_SPACE
 70
     0
 10
0.0
 20
0.0
 30
0.0
  3
*PAPER_SPACE
  1

  0
ENDBLK
  5
17
330
15
100
AcDbEntity
 67
     1
  8
0
100
AcDbBlockEnd
  0
BLOCK
  5
B1
330
24
100
AcDbEntity
  8
0
100
AcDbBlockBegin
  2
JIS_A3
 70
     2
 10
0.0
 20
0.0
 30
0.0
  3
JIS_A3
  1

  0
LINE
  5
25
330
24
100
AcDbEntity
  8
0
100
AcDbLine
 10
0.0
 20
0.0
 30
0.0
 11
0.0
 21
10.0
 31
0.0
  0
LINE
  5
26
330
24
100
AcDbEntity
  8
0
100
AcDbLine
 10
0.0
 20
297.0
 30
0.0
 11
25.0
 21
297.0
 31
0.0
  0
LINE
  5
27
330
24
100
AcDbEntity
  8
0
100
AcDbLine
 10
420.0
 20
297.0
 30
0.0
 11
420.0
 21
287.0
 31
0.0
  0
LINE
  5
28
330
24
100
AcDbEntity
  8
0
100
AcDbLine
 10
420.0
 20
0.0
 30
0.0
 11
410.0
 21
0.0
 31
0.0
  0
LINE
  5
29
330
24
100
AcDbEntity
  8
0
100
AcDbLine
 10
25.0
 20
10.0
 30
0.0
 11
25.0
 21
287.0
 31
0.0
  0
LINE
  5
2A
330
24
100
AcDbEntity
  8
0
100
AcDbLine
 10
410.0
 20
10.0
 30
0.0
 11
25.0
 21
10.0
 31
0.0
  0
LINE
  5
2B
330
24
100
AcDbEntity
  8
0
100
AcDbLine
 10
410.0
 20
287.0
 30
0.0
 11
410.0
 21
10.0
 31
0.0
  0
LINE
  5
2C
330
24
100
AcDbEntity
  8
0
100
AcDbLine
 10
25.0
 20
287.0
 30
0.0
 11
410.0
 21
287.0
 31
0.0
  0
LINE
  5
2D
330
24
100
AcDbEntity
  8
0
100
AcDbLine
 10
0.0
 20
287.0
 30
0.0
 11
0.0
 21
297.0
 31
0.0
  0
LINE
  5
2E
330
24
100
AcDbEntity
  8
0
100
AcDbLine
 10
25.0
 20
0.0
 30
0.0
 11
0.0
 21
0.0
 31
0.0
  0
LINE
  5
2F
330
24
100
AcDbEntity
  8
0
100
AcDbLine
 10
420.0
 20
10.0
 30
0.0
 11
420.0
 21
0.0
 31
0.0
  0
LINE
  5
30
330
24
100
AcDbEntity
  8
0
100
AcDbLine
 10
410.0
 20
297.0
 30
0.0
 11
420.0
 21
297.0
 31
0.0
  0
ATTDEF
  5
31
330
24
100
AcDbEntity
  8
0
 62
     0
100
AcDbText
 10
19.0
 20
10.0
 30
0.0
 40
3.0
  1

 50
90.0
  7
ADESK1
100
AcDbAttributeDefinition
  3

  2
USER
 70
     8
  0
ATTDEF
  5
32
330
24
100
AcDbEntity
  8
0
 62
     0
100
AcDbText
 10
19.0
 20
70.0
 30
0.0
 40
3.0
  1

 50
90.0
  7
ADESK1
100
AcDbAttributeDefinition
  3

  2
REVDATE
 70
     8
  0
ATTDEF
  5
33
330
24
100
AcDbEntity
  8
0
 62
     0
100
AcDbText
 10
19.0
 20
118.0
 30
0.0
 40
3.0
  1

 50
90.0
  7
ADESK1
100
AcDbAttributeDefinition
  3

  2
FNAME
 70
     8
  0
LINE
  5
34
330
24
100
AcDbEntity
  8
OBJECT
100
AcDbLine
 10
130.0
 20
16.0
 30
0.0
 11
25.0
 21
16.0
 31
0.0
  0
LINE
  5
35
330
24
100
AcDbEntity
  8
OBJECT
100
AcDbLine
 10
130.0
 20
22.0
 30
0.0
 11
25.0
 21
22.0
 31
0.0
  0
LINE
  5
36
330
24
100
AcDbEntity
  8
OBJECT
100
AcDbLine
 10
130.0
 20
28.0
 30
0.0
 11
25.0
 21
28.0
 31
0.0
  0
LINE
  5
37
330
24
100
AcDbEntity
  8
OBJECT
100
AcDbLine
 10
130.0
 20
34.0
 30
0.0
 11
25.0
 21
34.0
 31
0.0
  0
LINE
  5
38
330
24
100
AcDbEntity
  8
OBJECT
100
AcDbLine
 10
130.0
 20
40.0
 30
0.0
 11
25.0
 21
40.0
 31
0.0
  0
LINE
  5
39
330
24
100
AcDbEntity
  8
OBJECT
100
AcDbLine
 10
28.0
 20
11.53589799999999
 30
0.0
 11
30.0
 21
15.0
 31
0.0
  0
LINE
  5
3A
330
24
100
AcDbEntity
  8
OBJECT
100
AcDbLine
 10
32.0
 20
11.53589799999999
 30
0.0
 11
30.0
 21
15.0
 31
0.0
  0
LINE
  5
3B
330
24
100
AcDbEntity
  8
OBJECT
100
AcDbLine
 10
35.0
 20
10.0
 30
0.0
 11
35.0
 21
40.0
 31
0.0
  0
LINE
  5
3C
330
24
100
AcDbEntity
  8
OBJECT
100
AcDbLine
 10
50.0
 20
10.0
 30
0.0
 11
50.0
 21
40.0
 31
0.0
  0
LINE
  5
3D
330
24
100
AcDbEntity
  8
OBJECT
100
AcDbLine
 10
80.0
 20
10.0
 30
0.0
 11
80.0
 21
40.0
 31
0.0
  0
LINE
  5
3E
330
24
100
AcDbEntity
  8
OBJECT
100
AcDbLine
 10
28.0
 20
11.53589799999999
 30
0.0
 11
32.0
 21
11.53589799999999
 31
0.0
  0
LINE
  5
3F
330
24
100
AcDbEntity
  8
OBJECT
100
AcDbLine
 10
39.5
 20
13.0
 30
0.0
 11
40.49999999999999
 21
13.0
 31
0.0
  0
LINE
  5
40
330
24
100
AcDbEntity
  8
OBJECT
100
AcDbLine
 10
44.5
 20
13.0
 30
0.0
 11
45.49999999999999
 21
13.0
 31
0.0
  0
LINE
  5
41
330
24
100
AcDbEntity
  8
OBJECT
100
AcDbLine
 10
32.0
 20
17.535898
 30
0.0
 11
30.0
 21
20.99999999999999
 31
0.0
  0
LINE
  5
42
330
24
100
AcDbEntity
  8
OBJECT
100
AcDbLine
 10
28.0
 20
17.535898
 30
0.0
 11
32.0
 21
17.535898
 31
0.0
  0
LINE
  5
43
330
24
100
AcDbEntity
  8
OBJECT
100
AcDbLine
 10
28.0
 20
17.535898
 30
0.0
 11
30.0
 21
20.99999999999999
 31
0.0
  0
LINE
  5
44
330
24
100
AcDbEntity
  8
OBJECT
100
AcDbLine
 10
32.0
 20
23.53589799999999
 30
0.0
 11
30.0
 21
26.99999999999999
 31
0.0
  0
LINE
  5
45
330
24
100
AcDbEntity
  8
OBJECT
100
AcDbLine
 10
28.0
 20
23.53589799999999
 30
0.0
 11
32.0
 21
23.53589799999999
 31
0.0
  0
LINE
  5
46
330
24
100
AcDbEntity
  8
OBJECT
100
AcDbLine
 10
28.0
 20
23.53589799999999
 30
0.0
 11
30.0
 21
26.99999999999999
 31
0.0
  0
LINE
  5
47
330
24
100
AcDbEntity
  8
OBJECT
100
AcDbLine
 10
28.0
 20
35.53589799999999
 30
0.0
 11
30.0
 21
39.0
 31
0.0
  0
LINE
  5
48
330
24
100
AcDbEntity
  8
OBJECT
100
AcDbLine
 10
32.0
 20
35.53589799999999
 30
0.0
 11
30.0
 21
39.0
 31
0.0
  0
LINE
  5
49
330
24
100
AcDbEntity
  8
OBJECT
100
AcDbLine
 10
28.0
 20
35.53589799999999
 30
0.0
 11
32.0
 21
35.53589799999999
 31
0.0
  0
LINE
  5
4A
330
24
100
AcDbEntity
  8
OBJECT
100
AcDbLine
 10
32.0
 20
29.535898
 30
0.0
 11
30.0
 21
33.0
 31
0.0
  0
LINE
  5
4B
330
24
100
AcDbEntity
  8
OBJECT
100
AcDbLine
 10
28.0
 20
29.535898
 30
0.0
 11
32.0
 21
29.535898
 31
0.0
  0
LINE
  5
4C
330
24
100
AcDbEntity
  8
OBJECT
100
AcDbLine
 10
28.0
 20
29.535898
 30
0.0
 11
30.0
 21
33.0
 31
0.0
  0
LINE
  5
4D
330
24
100
AcDbEntity
  8
OBJECT
100
AcDbLine
 10
39.5
 20
19.0
 30
0.0
 11
40.49999999999999
 21
19.0
 31
0.0
  0
LINE
  5
4E
330
24
100
AcDbEntity
  8
OBJECT
100
AcDbLine
 10
44.5
 20
19.0
 30
0.0
 11
45.49999999999999
 21
19.0
 31
0.0
  0
LINE
  5
4F
330
24
100
AcDbEntity
  8
OBJECT
100
AcDbLine
 10
39.5
 20
25.0
 30
0.0
 11
40.49999999999999
 21
25.0
 31
0.0
  0
LINE
  5
50
330
24
100
AcDbEntity
  8
OBJECT
100
AcDbLine
 10
44.5
 20
25.0
 30
0.0
 11
45.49999999999999
 21
25.0
 31
0.0
  0
LINE
  5
51
330
24
100
AcDbEntity
  8
OBJECT
100
AcDbLine
 10
39.5
 20
31.0
 30
0.0
 11
40.49999999999999
 21
31.0
 31
0.0
  0
LINE
  5
52
330
24
100
AcDbEntity
  8
OBJECT
100
AcDbLine
 10
39.5
 20
37.0
 30
0.0
 11
40.49999999999999
 21
37.0
 31
0.0
  0
LINE
  5
53
330
24
100
AcDbEntity
  8
OBJECT
100
AcDbLine
 10
44.5
 20
31.0
 30
0.0
 11
45.49999999999999
 21
31.0
 31
0.0
  0
LINE
  5
54
330
24
100
AcDbEntity
  8
OBJECT
100
AcDbLine
 10
44.5
 20
37.0
 30
0.0
 11
45.49999999999999
 21
37.0
 31
0.0
  0
LINE
  5
55
330
24
100
AcDbEntity
  8
OBJECT
100
AcDbLine
 10
120.0
 20
10.0
 30
0.0
 11
120.0
 21
40.0
 31
0.0
  0
LINE
  5
56
330
24
100
AcDbEntity
  8
OBJECT
100
AcDbLine
 10
130.0
 20
40.0
 30
0.0
 11
130.0
 21
10.0
 31
0.0
  0
LINE
  5
57
330
24
100
AcDbEntity
  8
0
100
AcDbLine
 10
217.5
 20
10.0
 30
0.0
 11
217.5
 21
0.0
 31
0.0
  0
LINE
  5
58
330
24
100
AcDbEntity
  8
0
100
AcDbLine
 10
217.5
 20
287.0
 30
0.0
 11
217.5
 21
297.0
 31
0.0
  0
LINE
  5
59
330
24
100
AcDbEntity
  8
0
100
AcDbLine
 10
410.0
 20
148.5
 30
0.0
 11
420.0
 21
148.5
 31
0.0
  0
LINE
  5
5A
330
24
100
AcDbEntity
  8
0
100
AcDbLine
 10
25.0
 20
148.5
 30
0.0
 11
0.0
 21
148.5
 31
0.0
  0
TEXT
  5
5B
330
24
100
AcDbEntity
  8
0
100
AcDbText
 10
1.0
 20
1.0
 30
0.0
 40
3.0
  1
この図枠はサンプルです。社内の規格やプロッタの出力範囲に合わせて適当に変更してご利用ください。
  7
ADESK1
100
AcDbText
  0
LINE
  5
5C
330
24
100
AcDbEntity
  8
0
100
AcDbLine
 10
25.0
 20
240.8333333333333
 30
0.0
 11
20.0
 21
240.8333333333333
 31
0.0
  0
LINE
  5
5D
330
24
100
AcDbEntity
  8
0
100
AcDbLine
 10
25.0
 20
194.6666666666666
 30
0.0
 11
20.0
 21
194.6666666666666
 31
0.0
  0
LINE
  5
5E
330
24
100
AcDbEntity
  8
0
100
AcDbLine
 10
25.0
 20
148.5
 30
0.0
 11
20.0
 21
148.5
 31
0.0
  0
LINE
  5
5F
330
24
100
AcDbEntity
  8
0
100
AcDbLine
 10
25.0
 20
102.3333333333333
 30
0.0
 11
20.0
 21
102.3333333333333
 31
0.0
  0
LINE
  5
60
330
24
100
AcDbEntity
  8
0
100
AcDbLine
 10
25.0
 20
56.16666666666667
 30
0.0
 11
20.0
 21
56.16666666666667
 31
0.0
  0
LINE
  5
61
330
24
100
AcDbEntity
  8
0
100
AcDbLine
 10
410.0
 20
56.16666666666668
 30
0.0
 11
415.0
 21
56.16666666666668
 31
0.0
  0
LINE
  5
62
330
24
100
AcDbEntity
  8
0
100
AcDbLine
 10
410.0
 20
102.3333333333333
 30
0.0
 11
415.0
 21
102.3333333333333
 31
0.0
  0
LINE
  5
63
330
24
100
AcDbEntity
  8
0
100
AcDbLine
 10
410.0
 20
148.5
 30
0.0
 11
415.0
 21
148.5
 31
0.0
  0
LINE
  5
64
330
24
100
AcDbEntity
  8
0
100
AcDbLine
 10
410.0
 20
194.6666666666667
 30
0.0
 11
415.0
 21
194.6666666666667
 31
0.0
  0
LINE
  5
65
330
24
100
AcDbEntity
  8
0
100
AcDbLine
 10
410.0
 20
240.8333333333333
 30
0.0
 11
415.0
 21
240.8333333333333
 31
0.0
  0
LINE
  5
66
330
24
100
AcDbEntity
  8
0
100
AcDbLine
 10
73.125
 20
10.0
 30
0.0
 11
73.125
 21
5.0
 31
0.0
  0
LINE
  5
67
330
24
100
AcDbEntity
  8
0
100
AcDbLine
 10
121.25
 20
10.0
 30
0.0
 11
121.25
 21
5.0
 31
0.0
  0
LINE
  5
68
330
24
100
AcDbEntity
  8
0
100
AcDbLine
 10
169.375
 20
10.0
 30
0.0
 11
169.375
 21
5.0
 31
0.0
  0
LINE
  5
69
330
24
100
AcDbEntity
  8
0
100
AcDbLine
 10
217.5
 20
10.0
 30
0.0
 11
217.5
 21
5.0
 31
0.0
  0
LINE
  5
6A
330
24
100
AcDbEntity
  8
0
100
AcDbLine
 10
265.625
 20
10.0
 30
0.0
 11
265.625
 21
5.0
 31
0.0
  0
LINE
  5
6B
330
24
100
AcDbEntity
  8
0
100
AcDbLine
 10
313.75
 20
10.0
 30
0.0
 11
313.75
 21
5.0
 31
0.0
  0
LINE
  5
6C
330
24
100
AcDbEntity
  8
0
100
AcDbLine
 10
361.8749999999999
 20
10.0
 30
0.0
 11
361.8749999999999
 21
5.0
 31
0.0
  0
LINE
  5
6D
330
24
100
AcDbEntity
  8
0
100
AcDbLine
 10
361.8749999999999
 20
287.0
 30
0.0
 11
361.8749999999999
 21
292.0
 31
0.0
  0
LINE
  5
6E
330
24
100
AcDbEntity
  8
0
100
AcDbLine
 10
313.75
 20
287.0
 30
0.0
 11
313.75
 21
292.0
 31
0.0
  0
LINE
  5
6F
330
24
100
AcDbEntity
  8
0
100
AcDbLine
 10
265.625
 20
287.0
 30
0.0
 11
265.625
 21
292.0
 31
0.0
  0
LINE
  5
70
330
24
100
AcDbEntity
  8
0
100
AcDbLine
 10
217.5
 20
287.0
 30
0.0
 11
217.5
 21
292.0
 31
0.0
  0
LINE
  5
71
330
24
100
AcDbEntity
  8
0
100
AcDbLine
 10
169.375
 20
287.0
 30
0.0
 11
169.375
 21
292.0
 31
0.0
  0
LINE
  5
72
330
24
100
AcDbEntity
  8
0
100
AcDbLine
 10
121.25
 20
287.0
 30
0.0
 11
121.25
 21
292.0
 31
0.0
  0
LINE
  5
73
330
24
100
AcDbEntity
  8
0
100
AcDbLine
 10
73.125
 20
287.0
 30
0.0
 11
73.125
 21
292.0
 31
0.0
  0
TEXT
  5
74
330
24
100
AcDbEntity
  8
0
100
AcDbText
 10
47.84821428571429
 20
288.0
 30
0.0
 40
3.0
  1
1
  7
ADESK1
 72
     1
 11
49.0625
 21
288.0
 31
0.0
100
AcDbText
  0
TEXT
  5
75
330
24
100
AcDbEntity
  8
0
100
AcDbText
 10
21.32144707381961
 20
263.9166666666666
 30
0.0
 40
3.0
  1
A
  7
ADESK1
 72
     1
 11
22.60716135953389
 21
263.9166666666666
 31
0.0
100
AcDbText
  0
TEXT
  5
76
330
24
100
AcDbEntity
  8
0
100
AcDbText
 10
95.75892857142857
 20
288.0
 30
0.0
 40
3.0
  1
2
  7
ADESK1
 72
     1
 11
97.1875
 21
288.0
 31
0.0
100
AcDbText
  0
TEXT
  5
77
330
24
100
AcDbEntity
  8
0
100
AcDbText
 10
143.8839285714285
 20
288.0
 30
0.0
 40
3.0
  1
3
  7
ADESK1
 72
     1
 11
145.3125
 21
288.0
 31
0.0
100
AcDbText
  0
TEXT
  5
78
330
24
100
AcDbEntity
  8
0
100
AcDbText
 10
191.9375
 20
288.0
 30
0.0
 40
3.0
  1
4
  7
ADESK1
 72
     1
 11
193.4375
 21
288.0
 31
0.0
100
AcDbText
  0
TEXT
  5
79
330
24
100
AcDbEntity
  8
0
100
AcDbText
 10
240.1339285714285
 20
288.0
 30
0.0
 40
3.0
  1
5
  7
ADESK1
 72
     1
 11
241.5624999999999
 21
288.0
 31
0.0
100
AcDbText
  0
TEXT
  5
7A
330
24
100
AcDbEntity
  8
0
100
AcDbText
 10
288.1874999999999
 20
288.0
 30
0.0
 40
3.0
  1
6
  7
ADESK1
 72
     1
 11
289.6875
 21
288.0
 31
0.0
100
AcDbText
  0
TEXT
  5
7B
330
24
100
AcDbEntity
  8
0
100
AcDbText
 10
336.3839285714285
 20
288.0
 30
0.0
 40
3.0
  1
7
  7
ADESK1
 72
     1
 11
337.8125
 21
288.0
 31
0.0
100
AcDbText
  0
TEXT
  5
7C
330
24
100
AcDbEntity
  8
0
100
AcDbText
 10
384.5089285714285
 20
288.0
 30
0.0
 40
3.0
  1
8
  7
ADESK1
 72
     1
 11
385.9375
 21
288.0
 31
0.0
100
AcDbText
  0
TEXT
  5
7D
330
24
100
AcDbEntity
  8
0
100
AcDbText
 10
21.03573278810532
 20
217.7499999999999
 30
0.0
 40
3.0
  1
B
  7
ADESK1
 72
     1
 11
22.60716135953389
 21
217.7499999999999
 31
0.0
100
AcDbText
  0
TEXT
  5
7E
330
24
100
AcDbEntity
  8
0
100
AcDbText
 10
21.10716135953389
 20
171.5833333333333
 30
0.0
 40
3.0
  1
C
  7
ADESK1
 72
     1
 11
22.60716135953389
 21
171.5833333333333
 31
0.0
100
AcDbText
  0
TEXT
  5
7F
330
24
100
AcDbEntity
  8
0
100
AcDbText
 10
21.03573278810532
 20
125.4166666666666
 30
0.0
 40
3.0
  1
D
  7
ADESK1
 72
     1
 11
22.60716135953389
 21
125.4166666666666
 31
0.0
100
AcDbText
  0
TEXT
  5
80
330
24
100
AcDbEntity
  8
0
100
AcDbText
 10
21.10716135953389
 20
79.25
 30
0.0
 40
3.0
  1
E
  7
ADESK1
 72
     1
 11
22.60716135953389
 21
79.25
 31
0.0
100
AcDbText
  0
TEXT
  5
81
330
24
100
AcDbEntity
  8
0
100
AcDbText
 10
21.10716135953389
 20
33.08333333333334
 30
0.0
 40
3.0
  1
F
  7
ADESK1
 72
     1
 11
22.60716135953389
 21
33.08333333333334
 31
0.0
100
AcDbText
  0
TEXT
  5
82
330
24
100
AcDbEntity
  8
0
100
AcDbText
 10
47.84821428571429
 20
6.019997240728748
 30
0.0
 40
3.0
  1
1
  7
ADESK1
 72
     1
 11
49.0625
 21
6.019997240728748
 31
0.0
100
AcDbText
  0
TEXT
  5
83
330
24
100
AcDbEntity
  8
0
100
AcDbText
 10
95.75892857142857
 20
6.019997240728748
 30
0.0
 40
3.0
  1
2
  7
ADESK1
 72
     1
 11
97.1875
 21
6.019997240728748
 31
0.0
100
AcDbText
  0
TEXT
  5
84
330
24
100
AcDbEntity
  8
0
100
AcDbText
 10
143.8839285714285
 20
6.019997240728748
 30
0.0
 40
3.0
  1
3
  7
ADESK1
 72
     1
 11
145.3125
 21
6.019997240728748
 31
0.0
100
AcDbText
  0
TEXT
  5
85
330
24
100
AcDbEntity
  8
0
100
AcDbText
 10
191.9375
 20
6.019997240728748
 30
0.0
 40
3.0
  1
4
  7
ADESK1
 72
     1
 11
193.4375
 21
6.019997240728748
 31
0.0
100
AcDbText
  0
TEXT
  5
86
330
24
100
AcDbEntity
  8
0
100
AcDbText
 10
240.1339285714285
 20
6.019997240728748
 30
0.0
 40
3.0
  1
5
  7
ADESK1
 72
     1
 11
241.5624999999999
 21
6.019997240728748
 31
0.0
100
AcDbText
  0
TEXT
  5
87
330
24
100
AcDbEntity
  8
0
100
AcDbText
 10
288.1874999999999
 20
6.019997240728748
 30
0.0
 40
3.0
  1
6
  7
ADESK1
 72
     1
 11
289.6875
 21
6.019997240728748
 31
0.0
100
AcDbText
  0
TEXT
  5
88
330
24
100
AcDbEntity
  8
0
100
AcDbText
 10
336.3839285714285
 20
6.019997240728748
 30
0.0
 40
3.0
  1
7
  7
ADESK1
 72
     1
 11
337.8125
 21
6.019997240728748
 31
0.0
100
AcDbText
  0
TEXT
  5
89
330
24
100
AcDbEntity
  8
0
100
AcDbText
 10
384.5089285714285
 20
6.019997240728748
 30
0.0
 40
3.0
  1
8
  7
ADESK1
 72
     1
 11
385.9375
 21
6.019997240728748
 31
0.0
100
AcDbText
  0
TEXT
  5
8A
330
24
100
AcDbEntity
  8
0
100
AcDbText
 10
411.5851108826324
 20
263.9166666666666
 30
0.0
 40
3.0
  1
A
  7
ADESK1
 72
     1
 11
412.8708251683468
 21
263.9166666666666
 31
0.0
100
AcDbText
  0
TEXT
  5
8B
330
24
100
AcDbEntity
  8
0
100
AcDbText
 10
411.2993965969182
 20
217.7499999999999
 30
0.0
 40
3.0
  1
B
  7
ADESK1
 72
     1
 11
412.8708251683468
 21
217.7499999999999
 31
0.0
100
AcDbText
  0
TEXT
  5
8C
330
24
100
AcDbEntity
  8
0
100
AcDbText
 10
411.3708251683467
 20
171.5833333333333
 30
0.0
 40
3.0
  1
C
  7
ADESK1
 72
     1
 11
412.8708251683468
 21
171.5833333333333
 31
0.0
100
AcDbText
  0
TEXT
  5
8D
330
24
100
AcDbEntity
  8
0
100
AcDbText
 10
411.2993965969182
 20
125.4166666666666
 30
0.0
 40
3.0
  1
D
  7
ADESK1
 72
     1
 11
412.8708251683468
 21
125.4166666666666
 31
0.0
100
AcDbText
  0
TEXT
  5
8E
330
24
100
AcDbEntity
  8
0
100
AcDbText
 10
411.3708251683467
 20
79.25
 30
0.0
 40
3.0
  1
E
  7
ADESK1
 72
     1
 11
412.8708251683468
 21
79.25
 31
0.0
100
AcDbText
  0
TEXT
  5
8F
330
24
100
AcDbEntity
  8
0
100
AcDbText
 10
411.3708251683467
 20
33.08333333333334
 30
0.0
 40
3.0
  1
F
  7
ADESK1
 72
     1
 11
412.8708251683468
 21
33.08333333333334
 31
0.0
100
AcDbText
  0
LINE
  5
90
330
24
100
AcDbEntity
  8
0
 62
     0
100
AcDbLine
 10
280.2978723404241
 20
49.00000000000036
 30
0.0
 11
410.0
 21
49.00000000000036
 31
0.0
  0
LINE
  5
91
330
24
100
AcDbEntity
  8
0
 62
     0
100
AcDbLine
 10
280.2978723404241
 20
13.00000000000004
 30
0.0
 11
410.0
 21
13.00000000000004
 31
0.0
  0
LINE
  5
92
330
24
100
AcDbEntity
  8
0
 62
     0
100
AcDbLine
 10
280.2978723404241
 20
37.00000000000024
 30
0.0
 11
410.0
 21
37.00000000000024
 31
0.0
  0
LINE
  5
93
330
24
100
AcDbEntity
  8
0
 62
     0
100
AcDbLine
 10
318.1276595744673
 20
22.00000000000012
 30
0.0
 11
410.0
 21
22.00000000000012
 31
0.0
  0
LINE
  5
94
330
24
100
AcDbEntity
  8
0
 62
     0
100
AcDbLine
 10
280.2978723404241
 20
10.0
 30
0.0
 11
410.0
 21
10.0
 31
0.0
  0
LINE
  5
95
330
24
100
AcDbEntity
  8
0
 62
     0
100
AcDbLine
 10
410.0
 20
49.00000000000036
 30
0.0
 11
280.2978723404241
 21
49.00000000000036
 31
0.0
  0
LINE
  5
96
330
24
100
AcDbEntity
  8
0
 62
     0
100
AcDbLine
 10
303.7163120567365
 20
37.00000000000024
 30
0.0
 11
303.7163120567365
 21
10.0
 31
0.0
  0
LINE
  5
97
330
24
100
AcDbEntity
  8
0
 62
     0
100
AcDbLine
 10
285.702127659573
 20
37.00000000000024
 30
0.0
 11
285.702127659573
 21
10.0
 31
0.0
  0
LINE
  5
98
330
24
100
AcDbEntity
  8
0
 62
     0
100
AcDbLine
 10
312.7234042553184
 20
37.00000000000024
 30
0.0
 11
312.7234042553184
 21
10.0
 31
0.0
  0
LINE
  5
99
330
24
100
AcDbEntity
  8
0
 62
     0
100
AcDbLine
 10
318.1276595744673
 20
25.00000000000012
 30
0.0
 11
318.1276595744673
 21
10.0
 31
0.0
  0
LINE
  5
9A
330
24
100
AcDbEntity
  8
0
 62
     0
100
AcDbLine
 10
280.2978723404241
 20
49.00000000000036
 30
0.0
 11
280.2978723404241
 21
10.0
 31
0.0
  0
LINE
  5
9B
330
24
100
AcDbEntity
  8
0
 62
     0
100
AcDbLine
 10
348.7517730496447
 20
49.00000000000036
 30
0.0
 11
348.7517730496447
 21
10.0
 31
0.0
  0
LINE
  5
9C
330
24
100
AcDbEntity
  8
0
 62
     0
100
AcDbLine
 10
328.7659574468077
 20
22.00000000000007
 30
0.0
 11
328.7659574468077
 21
10.0
 31
0.0
  0
LINE
  5
9D
330
24
100
AcDbEntity
  8
0
 62
     0
100
AcDbLine
 10
339.4042553191484
 20
22.00000000000007
 30
0.0
 11
339.4042553191484
 21
10.0
 31
0.0
  0
LINE
  5
9E
330
24
100
AcDbEntity
  8
0
 62
     0
100
AcDbLine
 10
280.2978723404241
 20
16.00000000000008
 30
0.0
 11
318.1276595744673
 21
16.00000000000008
 31
0.0
  0
LINE
  5
9F
330
24
100
AcDbEntity
  8
0
 62
     0
100
AcDbLine
 10
280.2978723404241
 20
10.0
 30
0.0
 11
280.2978723404241
 21
13.00000000000004
 31
0.0
  0
TEXT
  5
A0
330
24
100
AcDbEntity
  8
0
 62
     0
100
AcDbText
 10
321.7174935280942
 20
10.48329012996929
 30
0.0
 40
1.791674070777747
  1
製図
  7
ADESK1
 72
     1
 11
323.5688900678979
 21
10.48329012996929
 31
0.0
100
AcDbText
  0
TEXT
  5
A1
330
24
100
AcDbEntity
  8
0
 62
     0
100
AcDbText
 10
332.2960689314087
 20
10.48329012996929
 30
0.0
 40
1.791674070777747
  1
設計
  7
ADESK1
 72
     1
 11
334.2071879402383
 21
10.48329012996929
 31
0.0
100
AcDbText
  0
TEXT
  5
A2
330
24
100
AcDbEntity
  8
0
 62
     0
100
AcDbText
 10
342.2447163844405
 20
10.55220101068186
 30
0.0
 40
1.791674070777747
  1
照査
  7
ADESK1
 72
     1
 11
344.1558353932701
 21
10.55220101068186
 31
0.0
100
AcDbText
  0
LINE
  5
A3
330
24
100
AcDbEntity
  8
0
 62
     0
100
AcDbLine
 10
280.2978723404241
 20
25.00000000000012
 30
0.0
 11
318.1276595744673
 21
25.00000000000012
 31
0.0
  0
LINE
  5
A4
330
24
100
AcDbEntity
  8
0
 62
     0
100
AcDbLine
 10
280.2978723404241
 20
22.00000000000007
 30
0.0
 11
318.1276595744673
 21
22.00000000000012
 31
0.0
  0
LINE
  5
A5
330
24
100
AcDbEntity
  8
0
 62
     0
100
AcDbLine
 10
280.2978723404241
 20
19.00000000000007
 30
0.0
 11
318.1276595744673
 21
19.00000000000012
 31
0.0
  0
LINE
  5
A6
330
24
100
AcDbEntity
  8
0
 62
     0
100
AcDbLine
 10
280.2978723404241
 20
34.00000000000024
 30
0.0
 11
348.7517730496447
 21
34.00000000000024
 31
0.0
  0
LINE
  5
A7
330
24
100
AcDbEntity
  8
0
 62
     0
100
AcDbLine
 10
280.2978723404241
 20
31.0000000000002
 30
0.0
 11
348.7517730496447
 21
31.0000000000002
 31
0.0
  0
LINE
  5
A8
330
24
100
AcDbEntity
  8
0
 62
     0
100
AcDbLine
 10
280.2978723404241
 20
28.00000000000015
 30
0.0
 11
348.7517730496447
 21
28.00000000000015
 31
0.0
  0
LINE
  5
A9
330
24
100
AcDbEntity
  8
0
 62
     0
100
AcDbLine
 10
318.1276595744673
 20
25.00000000000012
 30
0.0
 11
348.7517730496447
 21
25.00000000000012
 31
0.0
  0
LINE
  5
AA
330
24
100
AcDbEntity
  8
0
 62
     0
100
AcDbLine
 10
318.1276595744673
 20
49.00000000000036
 30
0.0
 11
318.1276595744673
 21
25.00000000000012
 31
0.0
  0
LINE
  5
AB
330
24
100
AcDbEntity
  8
0
 62
     0
100
AcDbLine
 10
325.3333333333325
 20
37.00000000000024
 30
0.0
 11
325.3333333333325
 21
25.00000000000012
 31
0.0
  0
LINE
  5
AC
330
24
100
AcDbEntity
  8
0
 62
     0
100
AcDbLine
 10
336.1418439716306
 20
49.00000000000036
 30
0.0
 11
336.1418439716306
 21
22.00000000000012
 31
0.0
  0
LINE
  5
AD
330
24
100
AcDbEntity
  8
0
 62
     0
100
AcDbLine
 10
402.7943262411347
 20
22.00000000000012
 30
0.0
 11
402.7943262411347
 21
10.0
 31
0.0
  0
LINE
  5
AE
330
24
100
AcDbEntity
  8
0
 62
     0
100
AcDbLine
 10
410.0
 20
49.00000000000036
 30
0.0
 11
410.0
 21
10.0
 31
0.0
  0
LINE
  5
AF
330
24
100
AcDbEntity
  8
0
 62
     0
100
AcDbLine
 10
410.0
 20
10.0
 30
0.0
 11
410.0
 21
49.00000000000036
 31
0.0
  0
LINE
  5
B0
330
24
100
AcDbEntity
  8
0
 62
     0
100
AcDbLine
 10
402.7943262411347
 20
16.00000000000008
 30
0.0
 11
410.0
 21
16.00000000000008
 31
0.0
  0
ENDBLK
  5
B2
330
24
100
AcDbEntity
  8
0
100
AcDbBlockEnd
  0
ENDSEC
  0
SECTION
  2
ENTITIES
  0
MTEXT
  5
479
330
18
100
AcDbEntity
  8
上線
 48
10.0
100
AcDbMText
 10
2253.72144281457
 20
1430.035937614872
 30
0.0
 40
25.0
 41
0.0
 71
     4
 72
     1
  1
\A1;
 73
     1
 44
1.0
  0
MTEXT
  5
482
330
18
100
AcDbEntity
  8
上線
 48
10.0
100
AcDbMText
 10
2528.397580071227
 20
1457.117940756564
 30
0.0
 40
25.0
 41
0.0
 71
     4
 72
     1
  1
\A1;
 73
     1
 44
1.0
  0
LINE
  5
13BA
330
18
100
AcDbEntity
  8
WUWAGAKI
100
AcDbLine
 10
8943.502520836871
 20
121.1437874289504
 30
0.0
 11
8943.502520836871
 21
3047.293639225074
 31
0.0
  0
LINE
  5
13BB
330
18
100
AcDbEntity
  8
WUWAGAKI
100
AcDbLine
 10
4672.783602209951
 20
3047.293639225074
 30
0.0
 11
4672.783602209951
 21
121.1437874289504
 31
0.0
  0
LINE
  5
13C8
330
18
100
AcDbEntity
  8
WUWAGAKI
100
AcDbLine
 10
4672.783602209951
 20
121.1437874289504
 30
0.0
 11
8943.502520836871
 21
121.1437874289504
 31
0.0
  0
LINE
  5
13E2
330
18
100
AcDbEntity
  8
WUWAGAKI
100
AcDbLine
 10
8876.999508028914
 20
189.6433218707529
 30
0.0
 11
8876.999508028914
 21
609.6237545003223
 31
0.0
  0
TEXT
  5
13E3
330
18
100
AcDbEntity
  8
WUWAGAKI
100
AcDbText
 10
8061.319404496996
 20
538.8001935766415
 30
0.0
 40
45.0
  1
ＮＳＵ側溝
100
AcDbText
  0
LINE
  5
13E4
330
18
100
AcDbEntity
  8
WUWAGAKI
100
AcDbLine
 10
8036.319404496998
 20
609.6237545003223
 30
0.0
 11
8036.319404496998
 21
320.6720174259644
 31
0.0
  0
LINE
  5
13E5
330
18
100
AcDbEntity
  8
WUWAGAKI
100
AcDbLine
 10
7784.202932928491
 20
609.6237545003223
 30
0.0
 11
7784.202932928491
 21
189.6433218707529
 31
0.0
  0
TEXT
  5
13E6
330
18
100
AcDbEntity
  8
WUWAGAKI
100
AcDbText
 10
7831.73658857719
 20
541.3793537727006
 30
0.0
 40
45.0
  1
種　別
100
AcDbText
  0
LINE
  5
13E7
330
18
100
AcDbEntity
  8
WUWAGAKI
100
AcDbLine
 10
7784.202932928491
 20
320.6720174259644
 30
0.0
 11
8876.999508028911
 21
320.6720174259644
 31
0.0
  0
LINE
  5
13E8
330
18
100
AcDbEntity
  8
WUWAGAKI
100
AcDbLine
 10
7784.202932928491
 20
189.6433218707529
 30
0.0
 11
8876.999508028914
 21
189.6433218707529
 31
0.0
  0
TEXT
  5
13E9
330
18
100
AcDbEntity
  8
WUWAGAKI
100
AcDbText
 10
8654.717317443227
 20
343.1555282086724
 30
0.0
 40
45.0
  1
1269㎏
100
AcDbText
  0
TEXT
  5
13EA
330
18
100
AcDbEntity
  8
WUWAGAKI
100
AcDbText
 10
8061.319404496996
 20
440.7849513176587
 30
0.0
 40
47.25
  1
1200×900×2000
100
AcDbText
  0
LINE
  5
13EB
330
18
100
AcDbEntity
  8
WUWAGAKI
100
AcDbLine
 10
7784.202932928491
 20
515.0934665551853
 30
0.0
 11
8874.367685693151
 21
515.0934665551853
 31
0.0
  0
LINE
  5
13EC
330
18
100
AcDbEntity
  8
WUWAGAKI
100
AcDbLine
 10
7784.202932928491
 20
419.1870815905704
 30
0.0
 11
8876.999508028911
 21
419.1870815905704
 31
0.0
  0
LINE
  5
13ED
330
18
100
AcDbEntity
  8
WUWAGAKI
100
AcDbLine
 10
7784.202932928491
 20
515.0934665551853
 30
0.0
 11
8874.367685693151
 21
515.0934665551853
 31
0.0
  0
TEXT
  5
13EE
330
18
100
AcDbEntity
  8
WUWAGAKI
100
AcDbText
 10
7856.729134451851
 20
343.7425607442378
 30
0.0
 40
45.0
  1
縮尺
100
AcDbText
  0
TEXT
  5
13EF
330
18
100
AcDbEntity
  8
WUWAGAKI
100
AcDbText
 10
7829.08137669077
 20
440.2405137357191
 30
0.0
 40
45.0
  1
寸　法
100
AcDbText
  0
TEXT
  5
13F0
330
18
100
AcDbEntity
  8
WUWAGAKI
100
AcDbText
 10
8022.908365827964
 20
221.2508886771392
 30
0.0
 40
60.0
  1
㈱　ウ　チ　コ　ン
100
AcDbText
  0
TEXT
  5
13F1
330
18
100
AcDbEntity
  8
WUWAGAKI
100
AcDbText
 10
8102.011677242547
 20
345.0444761736948
 30
0.0
 40
45.0
  1
S＝　1：15
100
AcDbText
  0
TEXT
  5
13F2
330
18
100
AcDbEntity
  8
WUWAGAKI
100
AcDbText
 10
8457.416666433053
 20
345.0939136852362
 30
0.0
 40
45.0
  1
重量
100
AcDbText
  0
LINE
  5
13F3
330
18
100
AcDbEntity
  8
WUWAGAKI
100
AcDbLine
 10
8430.488890680907
 20
419.1870815905704
 30
0.0
 11
8430.488890680907
 21
320.6720174259644
 31
0.0
  0
LINE
  5
13F4
330
18
100
AcDbEntity
  8
WUWAGAKI
100
AcDbLine
 10
8614.717317443226
 20
419.1870815905704
 30
0.0
 11
8614.717317443226
 21
320.6720174259644
 31
0.0
  0
LINE
  5
13F5
330
18
100
AcDbEntity
  8
WUWAGAKI
100
AcDbLine
 10
7784.202932928491
 20
609.6237545003223
 30
0.0
 11
8876.999508028914
 21
609.6237545003223
 31
0.0
  0
LINE
  5
13F6
102
{ACAD_REACTORS
330
14A8
102
}
330
18
100
AcDbEntity
  8
上線
100
AcDbLine
 10
7651.384351475354
 20
2435.038628551727
 30
0.0
 11
7912.39856714824
 21
2435.038628551727
 31
0.0
  0
LINE
  5
13F7
102
{ACAD_REACTORS
330
14A8
102
}
330
18
100
AcDbEntity
  8
上線
100
AcDbLine
 10
7912.39856714824
 20
2534.743011297733
 30
0.0
 11
7651.384351475354
 21
2534.743011297733
 31
0.0
  0
LINE
  5
13F8
102
{ACAD_REACTORS
330
14A8
102
}
330
18
100
AcDbEntity
  8
上線
100
AcDbLine
 10
7654.384351475354
 20
2438.038628551727
 30
0.0
 11
7909.398567148238
 21
2438.038628551727
 31
0.0
  0
LINE
  5
13F9
102
{ACAD_REACTORS
330
14A8
102
}
330
18
100
AcDbEntity
  8
上線
100
AcDbLine
 10
7909.398567148238
 20
2531.743011297733
 30
0.0
 11
7654.384351475354
 21
2531.743011297733
 31
0.0
  0
LINE
  5
13FC
330
18
100
AcDbEntity
  8
WUWAGAKI
100
AcDbLine
 10
8943.502520836871
 20
3047.293639225074
 30
0.0
 11
4672.783602209951
 21
3047.293639225074
 31
0.0
  0
MTEXT
  5
13FE
102
{ACAD_REACTORS
330
14A8
102
}
330
18
100
AcDbEntity
  8
上線
 48
10.0
100
AcDbMText
 10
7675.439220900432
 20
2517.184680563019
 30
0.0
 40
50.0
 41
558.2059
 71
     1
 72
     5
  1
\fＭＳ Ｐ明朝|b0|i0|c128|p18;側面図
 73
     1
 44
1.0
  0
LINE
  5
1438
102
{ACAD_REACTORS
330
14A8
102
}
330
18
100
AcDbEntity
  8
上線
100
AcDbLine
 10
7651.384351475354
 20
2534.743011297733
 30
0.0
 11
7651.384351475354
 21
2435.038628551727
 31
0.0
  0
LINE
  5
1439
102
{ACAD_REACTORS
330
14A8
102
}
330
18
100
AcDbEntity
  8
上線
100
AcDbLine
 10
7654.384351475354
 20
2531.743011297733
 30
0.0
 11
7654.384351475354
 21
2438.038628551727
 31
0.0
  0
LINE
  5
143D
102
{ACAD_REACTORS
330
14A8
102
}
330
18
100
AcDbEntity
  8
上線
100
AcDbLine
 10
7912.39856714824
 20
2435.038628551727
 30
0.0
 11
7912.39856714824
 21
2534.743011297733
 31
0.0
  0
LINE
  5
143E
102
{ACAD_REACTORS
330
14A8
102
}
330
18
100
AcDbEntity
  8
上線
100
AcDbLine
 10
7909.39856714824
 20
2438.038628551727
 30
0.0
 11
7909.39856714824
 21
2531.743011297733
 31
0.0
  0
LINE
  5
1468
330
18
100
AcDbEntity
  8
点線
100
AcDbLine
 10
6781.891459311802
 20
906.5386373546825
 30
0.0
 11
8781.891459311802
 21
906.5386373546825
 31
0.0
  0
LINE
  5
1469
330
18
100
AcDbEntity
  8
OBJECT
100
AcDbLine
 10
6781.891459311804
 20
816.5386373546825
 30
0.0
 11
8781.891459311802
 21
816.5386373546825
 31
0.0
  0
LINE
  5
146A
330
18
100
AcDbEntity
  8
OBJECT
100
AcDbLine
 10
8781.891459311802
 20
816.5386373546825
 30
0.0
 11
8781.891459311802
 21
1806.538637354682
 31
0.0
  0
LINE
  5
146B
330
18
100
AcDbEntity
  8
OBJECT
100
AcDbLine
 10
8781.891459311802
 20
1806.538637354682
 30
0.0
 11
6781.891459311802
 21
1806.538637354682
 31
0.0
  0
LINE
  5
146C
330
18
100
AcDbEntity
  8
OBJECT
100
AcDbLine
 10
6781.891459311802
 20
1806.538637354682
 30
0.0
 11
6781.891459311804
 21
816.5386373546825
 31
0.0
  0
LINE
  5
1479
330
18
100
AcDbEntity
  8
0
 48
10.0
100
AcDbLine
 10
8781.891459311802
 20
1835.038628551727
 30
0.0
 11
8781.891459311802
 21
2165.038628551727
 31
0.0
  0
LINE
  5
147A
330
18
100
AcDbEntity
  8
0
 48
10.0
100
AcDbLine
 10
6781.891459311791
 20
1835.038628551723
 30
0.0
 11
6781.891459311791
 21
2165.038628551723
 31
0.0
  0
LINE
  5
147B
330
18
100
AcDbEntity
  8
OBJECT
 48
10.0
100
AcDbLine
 10
6781.891459311791
 20
2135.038628551727
 30
0.0
 11
8781.891459311802
 21
2135.038628551727
 31
0.0
  0
MTEXT
  5
147C
330
18
100
AcDbEntity
  8
0
  6
ByBlock
 62
     0
 48
10.0
100
AcDbMText
 10
7781.891459311802
 20
2165.038628551727
 30
0.0
 40
37.5
 41
0.0
 71
     5
 72
     1
  1
2000
 73
     1
 44
1.0
  0
SOLID
  5
147D
330
18
100
AcDbEntity
  8
0
  6
ByBlock
 62
     0
 48
10.0
100
AcDbTrace
 10
6819.391459311813
 20
2128.788628551727
 30
0.0
 11
6819.391459311813
 21
2141.288628551726
 31
0.0
 12
6781.891459311814
 22
2135.038628551727
 32
0.0
 13
6781.891459311814
 23
2135.038628551727
 33
0.0
  0
SOLID
  5
147E
330
18
100
AcDbEntity
  8
0
  6
ByBlock
 62
     0
 48
10.0
100
AcDbTrace
 10
8744.391459311781
 20
2128.788628551727
 30
0.0
 11
8744.391459311781
 21
2141.288628551726
 31
0.0
 12
8781.891459311781
 22
2135.038628551727
 32
0.0
 13
8781.891459311781
 23
2135.038628551727
 33
0.0
  0
LINE
  5
1974
330
18
100
AcDbEntity
  8
上線
100
AcDbLine
 10
5952.646674441868
 20
2435.038628551727
 30
0.0
 11
5952.646674441868
 21
2534.743011297733
 31
0.0
  0
LINE
  5
1975
330
18
100
AcDbEntity
  8
上線
100
AcDbLine
 10
5949.646674441868
 20
2438.038628551727
 30
0.0
 11
5949.646674441868
 21
2531.743011297733
 31
0.0
  0
LINE
  5
1976
330
18
100
AcDbEntity
  8
上線
100
AcDbLine
 10
5691.136244181738
 20
2534.743011297733
 30
0.0
 11
5691.136244181738
 21
2435.038628551727
 31
0.0
  0
LINE
  5
1977
330
18
100
AcDbEntity
  8
上線
100
AcDbLine
 10
5694.136244181738
 20
2531.743011297733
 30
0.0
 11
5694.136244181738
 21
2438.038628551727
 31
0.0
  0
MTEXT
  5
1978
330
18
100
AcDbEntity
  8
上線
 48
10.0
100
AcDbMText
 10
5715.191113606815
 20
2517.184680563019
 30
0.0
 40
50.0
 41
558.2059
 71
     1
 72
     5
  1
\fＭＳ Ｐ明朝|b0|i0|c128|p18;正面図
 73
     1
 44
1.0
  0
LINE
  5
1979
330
18
100
AcDbEntity
  8
上線
100
AcDbLine
 10
5691.136244181738
 20
2435.038628551727
 30
0.0
 11
5952.646674441868
 21
2435.038628551727
 31
0.0
  0
LINE
  5
197A
330
18
100
AcDbEntity
  8
上線
100
AcDbLine
 10
5694.136244181738
 20
2438.038628551727
 30
0.0
 11
5949.646674441868
 21
2438.038628551727
 31
0.0
  0
LINE
  5
197B
330
18
100
AcDbEntity
  8
上線
100
AcDbLine
 10
5952.646674441868
 20
2534.743011297733
 30
0.0
 11
5691.136244181738
 21
2534.743011297733
 31
0.0
  0
LINE
  5
197C
330
18
100
AcDbEntity
  8
上線
100
AcDbLine
 10
5949.646674441868
 20
2531.743011297733
 30
0.0
 11
5694.136244181738
 21
2531.743011297733
 31
0.0
  0
LINE
  5
1CE4
330
18
100
AcDbEntity
  8
OBJECT
 48
10.0
100
AcDbLine
 10
5251.891406731258
 20
1740.528361584692
 30
0.0
 11
6391.891511892347
 21
1740.528370348115
 31
0.0
  0
LINE
  5
1CE5
330
18
100
AcDbEntity
  8
OBJECT
 48
10.0
100
AcDbLine
 10
5161.891459311797
 20
1985.038619788303
 30
0.0
 11
6481.891459311808
 21
1985.038619788307
 31
0.0
  0
LINE
  5
1CE6
330
18
100
AcDbEntity
  8
OBJECT
 48
10.0
100
AcDbLine
 10
5161.891459311797
 20
2135.038628551727
 30
0.0
 11
6481.891459311808
 21
2135.038628551727
 31
0.0
  0
MTEXT
  5
1CE7
330
18
100
AcDbEntity
  8
0
  6
ByBlock
 62
     0
 48
10.0
100
AcDbMText
 10
5435.006651194375
 20
1038.143095955143
 30
0.0
 40
30.0
 41
0.0
 71
     5
 72
     1
  1
200R
 73
     1
 44
1.0
  0
LINE
  5
1CE8
330
18
100
AcDbEntity
  8
OBJECT
 48
10.0
100
AcDbLine
 10
5367.506651194375
 20
1008.143095955144
 30
0.0
 11
5502.506651194375
 21
1008.143095955144
 31
0.0
  0
ARC
  5
1CE9
330
18
100
AcDbEntity
  8
OBJECT
100
AcDbCircle
 10
5445.082470021556
 20
1106.538635403123
 30
0.0
 40
210.0
100
AcDbArc
 50
181.8881880067439
 51
270.0
  0
ARC
  5
1CEA
330
18
100
AcDbEntity
  8
OBJECT
100
AcDbCircle
 10
5445.335872909184
 20
1106.538637354683
 30
0.0
 40
200.0
100
AcDbArc
 50
181.9091524330007
 51
270.0
  0
LINE
  5
1CEB
330
18
100
AcDbEntity
  8
OBJECT
100
AcDbLine
 10
5161.891459311803
 20
816.5386373546825
 30
0.0
 11
6481.891459311802
 21
816.5386373546825
 31
0.0
  0
LINE
  5
1CEC
330
18
100
AcDbEntity
  8
OBJECT
 48
10.0
100
AcDbLine
 10
4983.391478854709
 20
816.5386373546825
 30
0.0
 11
4983.391478854709
 21
704.0386373546826
 31
0.0
  0
LINE
  5
1CED
330
18
100
AcDbEntity
  8
OBJECT
 48
10.0
100
AcDbLine
 10
4983.391476878181
 20
816.5386373546825
 30
0.0
 11
4983.391476878178
 21
1806.538637354682
 31
0.0
  0
LINE
  5
1CEE
330
18
100
AcDbEntity
  8
OBJECT
 48
10.0
100
AcDbLine
 10
4833.391468114758
 20
816.5386373546825
 30
0.0
 11
4833.391468114758
 21
1806.538637354682
 31
0.0
  0
LINE
  5
1CEF
330
18
100
AcDbEntity
  8
0
 48
10.0
100
AcDbLine
 10
5251.891406731258
 20
1650.528360252918
 30
0.0
 11
5251.891406731258
 21
1770.528360252918
 31
0.0
  0
SOLID
  5
1CF0
330
18
100
AcDbEntity
  8
0
  6
ByBlock
 62
     0
 48
10.0
100
AcDbTrace
 10
5289.391406731265
 20
1734.278379111534
 30
0.0
 11
5289.391406731265
 21
1746.778379111532
 31
0.0
 12
5251.891406731266
 22
1740.528379111536
 32
0.0
 13
5251.891406731266
 23
1740.528379111536
 33
0.0
  0
LINE
  5
1CF1
330
18
100
AcDbEntity
  8
OBJECT
100
AcDbLine
 10
5235.196493739655
 20
1099.61931750372
 30
0.0
 11
5211.891461281433
 21
1806.538635403124
 31
0.0
  0
LINE
  5
1CF2
330
18
100
AcDbEntity
  8
OBJECT
100
AcDbLine
 10
5245.446891513354
 20
1099.875671308155
 30
0.0
 11
5221.891459311803
 21
1806.538637354682
 31
0.0
  0
LINE
  5
1CF3
330
18
100
AcDbEntity
  8
OBJECT
100
AcDbLine
 10
5161.891459311803
 20
1806.538637354682
 30
0.0
 11
5161.891459311803
 21
816.5386373546825
 31
0.0
  0
LINE
  5
1CF4
330
18
100
AcDbEntity
  8
0
 48
10.0
100
AcDbLine
 10
5133.391468114761
 20
816.5386373546825
 30
0.0
 11
4803.39146811476
 21
816.5386373546825
 31
0.0
  0
LINE
  5
1CF5
330
18
100
AcDbEntity
  8
0
 48
10.0
100
AcDbLine
 10
5133.391478209952
 20
906.5386373546834
 30
0.0
 11
4953.391478209952
 21
906.5386373546834
 31
0.0
  0
SOLID
  5
1CF6
330
18
100
AcDbEntity
  8
0
  6
ByBlock
 62
     0
 48
10.0
100
AcDbTrace
 10
4839.641468114756
 20
854.0386373547043
 30
0.0
 11
4827.141468114755
 21
854.0386373547043
 31
0.0
 12
4833.391468114755
 22
816.5386373547043
 32
0.0
 13
4833.391468114755
 23
816.5386373547043
 33
0.0
  0
MTEXT
  5
1CF7
330
18
100
AcDbEntity
  8
0
  6
ByBlock
 62
     0
 48
10.0
100
AcDbMText
 10
4953.391474901646
 20
861.5386373546826
 30
0.0
 40
37.5
 41
0.0
 71
     5
 72
     1
  1
90
 11
0.0000000000000001
 21
1.0
 31
0.0
 73
     1
 44
1.0
  0
SOLID
  5
1CF8
330
18
100
AcDbEntity
  8
0
  6
ByBlock
 62
     0
 48
10.0
100
AcDbTrace
 10
4977.141478854713
 20
779.0386254955283
 30
0.0
 11
4989.641478854713
 21
779.0386254955283
 31
0.0
 12
4983.391478854713
 22
816.5386254955283
 32
0.0
 13
4983.391478854713
 23
816.5386254955283
 33
0.0
  0
SOLID
  5
1CF9
330
18
100
AcDbEntity
  8
0
  6
ByBlock
 62
     0
 48
10.0
100
AcDbTrace
 10
4989.641459351338
 20
944.0386373546889
 30
0.0
 11
4977.141459351339
 21
944.0386373546889
 31
0.0
 12
4983.391459351335
 22
906.5386373546889
 32
0.0
 13
4983.391459351335
 23
906.5386373546889
 33
0.0
  0
LINE
  5
1CFA
330
18
100
AcDbEntity
  8
WUWAGAKI
 48
10.0
100
AcDbLine
 10
5321.354916405695
 20
973.944036574532
 30
0.0
 11
5367.506651194375
 21
1008.143095955144
 31
0.0
210
0.0
220
0.0
230
-1.0
1001
ACAD
1000
DSTYLE
1002
{
1070
    78
1070
     8
1070
   270
1070
     8
1070
   140
1040
2.5
1070
    74
1070
     0
1070
   172
1070
     1
1070
    73
1070
     0
1070
    77
1070
     1
1070
    40
1040
10.0
1070
   147
1040
0.625
1070
    42
1040
0.625
1070
    44
1040
1.25
1070
    43
1040
3.75
1070
   141
1040
2.5
1070
    41
1040
2.5
1070
   273
1070
     8
1070
   274
1070
     4
1070
   143
1040
0.0394
1070
   171
1070
     4
1002
}
  0
SOLID
  5
1CFB
330
18
100
AcDbEntity
  8
0
  6
ByBlock
 62
     0
 48
10.0
100
AcDbTrace
 10
5332.836173742906
 20
989.9952557623398
 30
0.0
 11
5340.227543742187
 21
979.9146977651997
 31
0.0
 12
5306.290184751129
 22
962.7808667659152
 32
0.0
 13
5306.290184751129
 23
962.7808667659152
 33
0.0
  0
MTEXT
  5
1CFC
330
18
100
AcDbEntity
  8
0
  6
ByBlock
 62
     0
 48
10.0
100
AcDbMText
 10
4803.39146811476
 20
1311.538637354682
 30
0.0
 40
37.5
 41
0.0
 71
     5
 72
     1
  1
990
 11
0.0000000000000001
 21
1.0
 31
0.0
 73
     1
 44
1.0
  0
MTEXT
  5
1CFD
330
18
100
AcDbEntity
  8
0
  6
ByBlock
 62
     0
 48
10.0
100
AcDbMText
 10
4953.391474901646
 20
1356.538637354682
 30
0.0
 40
37.5
 41
0.0
 71
     5
 72
     1
  1
900
 11
0.0000000000000001
 21
1.0
 31
0.0
 73
     1
 44
1.0
  0
LINE
  5
1CFE
330
18
100
AcDbEntity
  8
0
 48
10.0
100
AcDbLine
 10
5133.391468114758
 20
1806.538637354682
 30
0.0
 11
4803.391468114757
 21
1806.538637354682
 31
0.0
  0
LINE
  5
1CFF
330
18
100
AcDbEntity
  8
OBJECT
 48
10.0
100
AcDbLine
 10
5161.891447452664
 20
1985.038619788303
 30
0.0
 11
5049.391447452665
 21
1985.038619788303
 31
0.0
  0
SOLID
  5
1D00
330
18
100
AcDbEntity
  8
0
  6
ByBlock
 62
     0
 48
10.0
100
AcDbTrace
 10
4839.641468114757
 20
1769.03863735466
 30
0.0
 11
4827.141468114757
 21
1769.03863735466
 31
0.0
 12
4833.391468114758
 22
1806.53863735466
 32
0.0
 13
4833.391468114758
 23
1806.53863735466
 33
0.0
  0
SOLID
  5
1D01
330
18
100
AcDbEntity
  8
0
  6
ByBlock
 62
     0
 48
10.0
100
AcDbTrace
 10
4977.141476878182
 20
1769.038625495549
 30
0.0
 11
4989.641476878182
 21
1769.038625495549
 31
0.0
 12
4983.391476878182
 22
1806.53862549555
 32
0.0
 13
4983.391476878182
 23
1806.53862549555
 33
0.0
  0
LINE
  5
1D02
330
18
100
AcDbEntity
  8
0
 48
10.0
100
AcDbLine
 10
5221.891452598702
 20
1835.038612492969
 30
0.0
 11
5221.891452598702
 21
2015.038612492968
 31
0.0
  0
SOLID
  5
1D03
330
18
100
AcDbEntity
  8
0
  6
ByBlock
 62
     0
 48
10.0
100
AcDbTrace
 10
5259.391459311803
 20
1978.788637315147
 30
0.0
 11
5259.391459311803
 21
1991.288637315145
 31
0.0
 12
5221.891459311803
 22
1985.038637315148
 32
0.0
 13
5221.891459311803
 23
1985.038637315148
 33
0.0
  0
LINE
  5
1D04
330
18
100
AcDbEntity
  8
0
 48
10.0
100
AcDbLine
 10
5161.891459311797
 20
1835.038628551723
 30
0.0
 11
5161.891459311797
 21
2165.038628551723
 31
0.0
  0
SOLID
  5
1D05
330
18
100
AcDbEntity
  8
0
  6
ByBlock
 62
     0
 48
10.0
100
AcDbTrace
 10
5124.39143559351
 20
1991.2886197883
 30
0.0
 11
5124.39143559351
 21
1978.7886197883
 31
0.0
 12
5161.89143559351
 22
1985.0386197883
 32
0.0
 13
5161.89143559351
 23
1985.0386197883
 33
0.0
  0
LINE
  5
1D06
330
18
100
AcDbEntity
  8
OBJECT
100
AcDbLine
 10
5221.891459311803
 20
1806.538637354682
 30
0.0
 11
5161.891459311803
 21
1806.538637354682
 31
0.0
  0
MTEXT
  5
1D07
330
18
100
AcDbEntity
  8
0
  6
ByBlock
 62
     0
 48
10.0
100
AcDbMText
 10
5086.891459311797
 20
2015.038621764837
 30
0.0
 40
37.5
 41
0.0
 71
     5
 72
     1
  1
60
 73
     1
 44
1.0
  0
SOLID
  5
1D08
330
18
100
AcDbEntity
  8
0
  6
ByBlock
 62
     0
 48
10.0
100
AcDbTrace
 10
5204.391459311819
 20
2128.788628551727
 30
0.0
 11
5204.391459311819
 21
2141.288628551726
 31
0.0
 12
5166.891459311819
 22
2135.038628551727
 32
0.0
 13
5166.891459311819
 23
2135.038628551727
 33
0.0
  0
SOLID
  5
1D09
330
18
100
AcDbEntity
  8
0
  6
ByBlock
 62
     0
 48
10.0
100
AcDbTrace
 10
6354.391511892347
 20
1734.278370348113
 30
0.0
 11
6354.391511892347
 21
1746.778370348111
 31
0.0
 12
6391.891511892347
 22
1740.528370348115
 32
0.0
 13
6391.891511892347
 23
1740.528370348115
 33
0.0
  0
LINE
  5
1D0A
330
18
100
AcDbEntity
  8
0
 48
10.0
100
AcDbLine
 10
6391.891406731302
 20
1650.528360252918
 30
0.0
 11
6391.891406731302
 21
1770.528360252918
 31
0.0
  0
LINE
  5
1D0B
330
18
100
AcDbEntity
  8
OBJECT
100
AcDbLine
 10
6408.586428823212
 20
1099.61931750372
 30
0.0
 11
6431.891461281434
 21
1806.538635403124
 31
0.0
  0
LINE
  5
1D0C
330
18
100
AcDbEntity
  8
OBJECT
100
AcDbLine
 10
6421.891459311803
 20
1806.538637354682
 30
0.0
 11
6398.336027110252
 21
1099.875671308155
 31
0.0
  0
LINE
  5
1D0D
330
18
100
AcDbEntity
  8
OBJECT
100
AcDbLine
 10
6481.891459311802
 20
816.5386373546825
 30
0.0
 11
6481.891459311802
 21
1806.538637354682
 31
0.0
  0
LINE
  5
1D0E
330
18
100
AcDbEntity
  8
OBJECT
100
AcDbLine
 10
5445.082470021556
 20
896.5386354031238
 30
0.0
 11
6198.700452541309
 21
896.5386354031236
 31
0.0
  0
LINE
  5
1D0F
330
18
100
AcDbEntity
  8
OBJECT
100
AcDbLine
 10
6198.44704571442
 20
906.538637354683
 30
0.0
 11
5445.335872909184
 21
906.538637354683
 31
0.0
  0
ARC
  5
1D10
330
18
100
AcDbEntity
  8
OBJECT
100
AcDbCircle
 10
6198.700452541309
 20
1106.538635403123
 30
0.0
 40
210.0
100
AcDbArc
 50
270.0
 51
358.111811993256
  0
ARC
  5
1D11
330
18
100
AcDbEntity
  8
OBJECT
100
AcDbCircle
 10
6198.44704571442
 20
1106.538637354683
 30
0.0
 40
200.0
100
AcDbArc
 50
270.0
 51
358.0908475669993
  0
MTEXT
  5
1D12
330
18
100
AcDbEntity
  8
0
  6
ByBlock
 62
     0
 48
10.0
100
AcDbMText
 10
5821.891406731301
 20
1770.528370348111
 30
0.0
 40
37.5
 41
0.0
 71
     5
 72
     1
  1
1140
 73
     1
 44
1.0
  0
MTEXT
  5
1D13
330
18
100
AcDbEntity
  8
0
  6
ByBlock
 62
     0
 48
10.0
100
AcDbMText
 10
5821.891459311803
 20
2015.038628551723
 30
0.0
 40
37.5
 41
0.0
 71
     5
 72
     1
  1
1200
 73
     1
 44
1.0
  0
MTEXT
  5
1D14
330
18
100
AcDbEntity
  8
0
  6
ByBlock
 62
     0
 48
10.0
100
AcDbMText
 10
5821.891459311803
 20
2165.038628551723
 30
0.0
 40
37.5
 41
0.0
 71
     5
 72
     1
  1
1320
 73
     1
 44
1.0
  0
SOLID
  5
1D1E
330
18
100
AcDbEntity
  8
0
  6
ByBlock
 62
     0
 48
10.0
100
AcDbTrace
 10
6444.391459311787
 20
2128.788628551727
 30
0.0
 11
6444.391459311787
 21
2141.288628551726
 31
0.0
 12
6481.891459311786
 22
2135.038628551727
 32
0.0
 13
6481.891459311786
 23
2135.038628551727
 33
0.0
  0
LINE
  5
1D1F
330
18
100
AcDbEntity
  8
OBJECT
100
AcDbLine
 10
6481.891459311802
 20
1806.538637354682
 30
0.0
 11
6421.891459311803
 21
1806.538637354682
 31
0.0
  0
LINE
  5
1D20
330
18
100
AcDbEntity
  8
0
 48
10.0
100
AcDbLine
 10
6421.891459311841
 20
1835.038618456532
 30
0.0
 11
6421.891459311841
 21
2015.038618456532
 31
0.0
  0
SOLID
  5
1D21
330
18
100
AcDbEntity
  8
0
  6
ByBlock
 62
     0
 48
10.0
100
AcDbTrace
 10
6384.391564472886
 20
1978.788628551727
 30
0.0
 11
6384.391564472886
 21
1991.288628551723
 31
0.0
 12
6421.891564472886
 22
1985.038628551727
 32
0.0
 13
6421.891564472886
 23
1985.038628551727
 33
0.0
  0
SOLID
  5
1D22
330
18
100
AcDbEntity
  8
0
  6
ByBlock
 62
     0
 48
10.0
100
AcDbTrace
 10
6519.391483030094
 20
1991.2886197883
 30
0.0
 11
6519.391483030094
 21
1978.7886197883
 31
0.0
 12
6481.891483030094
 22
1985.0386197883
 32
0.0
 13
6481.891483030094
 23
1985.0386197883
 33
0.0
  0
LINE
  5
1D23
330
18
100
AcDbEntity
  8
0
 48
10.0
100
AcDbLine
 10
6481.891459311808
 20
1835.038628551727
 30
0.0
 11
6481.891459311808
 21
2165.038628551727
 31
0.0
  0
LINE
  5
1D24
330
18
100
AcDbEntity
  8
OBJECT
 48
10.0
100
AcDbLine
 10
6481.891471170941
 20
1985.038619788303
 30
0.0
 11
6594.391471170941
 21
1985.038619788303
 31
0.0
  0
MTEXT
  5
1D25
330
18
100
AcDbEntity
  8
0
  6
ByBlock
 62
     0
 48
10.0
100
AcDbMText
 10
6556.891459311808
 20
2015.038619788305
 30
0.0
 40
37.5
 41
0.0
 71
     5
 72
     1
  1
60
 73
     1
 44
1.0
  0
ENDSEC
  0
SECTION
  2
OBJECTS
  0
DICTIONARY
  5
C
330
0
100
AcDbDictionary
281
     1
  3
ACAD_GROUP
350
D
  3
ACAD_LAYOUT
350
1302
  3
ACAD_MLINESTYLE
350
1B
  3
ACAD_PLOTSETTINGS
350
1303
  3
ACAD_PLOTSTYLENAME
350
1300
  0
DICTIONARY
  5
D
102
{ACAD_REACTORS
330
C
102
}
330
C
100
AcDbDictionary
281
     1
  3
*A1
350
14A8
  0
DICTIONARY
  5
1302
102
{ACAD_REACTORS
330
C
102
}
330
C
100
AcDbDictionary
281
     1
  3
Model
350
1304
  3
ﾚｲｱｳﾄ1
350
1305
  0
DICTIONARY
  5
1B
102
{ACAD_REACTORS
330
C
102
}
330
C
100
AcDbDictionary
281
     1
  3
STANDARD
350
1C
  0
DICTIONARY
  5
1303
102
{ACAD_REACTORS
330
C
102
}
330
C
100
AcDbDictionary
281
     1
  0
ACDBDICTIONARYWDFLT
  5
1300
102
{ACAD_REACTORS
330
C
102
}
330
C
100
AcDbDictionary
281
     1
  3
Normal
350
1301
100
AcDbDictionaryWithDefault
340
1301
  0
GROUP
  5
14A8
102
{ACAD_REACTORS
330
D
102
}
330
D
100
AcDbGroup
300

 70
     1
 71
     1
340
13F6
340
13F7
340
13F8
340
13F9
340
13FE
340
1438
340
1439
340
143D
340
143E
  0
LAYOUT
  5
1304
102
{ACAD_REACTORS
330
1302
102
}
330
1302
100
AcDbPlotSettings
  1

  2
Canon LBP3800 LIPSLX
  4
A4
  6

 40
5.873749732971191
 41
5.873747825622558
 42
5.873748779296875
 43
5.873748779296875
 44
209.9733276367187
 45
296.9259948730469
 46
0.0
 47
0.0
 48
0.0
 49
0.0
140
0.0
141
0.0
142
1.0
143
1.0
 70
 11952
 72
     1
 73
     1
 74
     0
  7

 75
     0
147
1.0
148
-359.8505035257317
149
-50.33861454697035
100
AcDbLayout
  1
Model
 70
     1
 71
     0
 10
0.0
 20
0.0
 11
12.0
 21
9.0
 12
0.0
 22
0.0
 32
0.0
 14
0.0
 24
0.0
 34
0.0
 15
0.0
 25
0.0
 35
0.0
146
0.0
 13
0.0
 23
0.0
 33
0.0
 16
1.0
 26
0.0
 36
0.0
 17
0.0
 27
1.0
 37
0.0
 76
     0
330
18
  0
LAYOUT
  5
1305
102
{ACAD_REACTORS
330
1302
102
}
330
1302
100
AcDbPlotSettings
  1

  2
Canon LBP3800 LIPSLX
  4

  6

 40
0.0
 41
0.0
 42
0.0
 43
0.0
 44
0.0
 45
0.0
 46
0.0
 47
0.0
 48
0.0
 49
0.0
140
0.0
141
0.0
142
1.0
143
1.0
 70
   688
 72
     0
 73
     0
 74
     5
  7

 75
    16
147
1.0
148
0.0
149
0.0
100
AcDbLayout
  1
ﾚｲｱｳﾄ1
 70
     1
 71
     1
 10
0.0
 20
0.0
 11
420.0
 21
297.0
 12
0.0
 22
0.0
 32
0.0
 14
1.000000000000000E+20
 24
1.000000000000000E+20
 34
1.000000000000000E+20
 15
-1.000000000000000E+20
 25
-1.000000000000000E+20
 35
-1.000000000000000E+20
146
0.0
 13
0.0
 23
0.0
 33
0.0
 16
1.0
 26
0.0
 36
0.0
 17
0.0
 27
1.0
 37
0.0
 76
     0
330
15
  0
MLINESTYLE
  5
1C
102
{ACAD_REACTORS
330
1B
102
}
330
1B
100
AcDbMlineStyle
  2
STANDARD
 70
     0
  3

 62
   256
 51
90.0
 52
90.0
 71
     2
 49
0.5
 62
   256
  6
BYLAYER
 49
-0.5
 62
   256
  6
BYLAYER
  0
ACDBPLACEHOLDER
  5
1301
102
{ACAD_REACTORS
330
1300
102
}
330
1300
  0
ENDSEC
  0
EOF
