  0
SECTION
  2
HEADER
  9
$ACADVER
  1
AC1015
  9
$ACADMAINTVER
 70
     6
  9
$DWGCODEPAGE
  3
ANSI_932
  9
$INSBASE
 10
0.0
 20
0.0
 30
0.0
  9
$EXTMIN
 10
710.0813698183028
 20
984.8549298695507
 30
0.0
  9
$EXTMAX
 10
9096.755595115467
 20
6397.336403042962
 30
0.0
  9
$LIMMIN
 10
0.0
 20
0.0
  9
$LIMMAX
 10
4455.0
 20
3150.0
  9
$ORTHOMODE
 70
     0
  9
$REGENMODE
 70
     1
  9
$FILLMODE
 70
     1
  9
$QTEXTMODE
 70
     0
  9
$MIRRTEXT
 70
     1
  9
$LTSCALE
 40
5.0
  9
$ATTMODE
 70
     1
  9
$TEXTSIZE
 40
2.5
  9
$TRACEWID
 40
1.0
  9
$TEXTSTYLE
  7
STANDARD
  9
$CLAYER
  8
OBJECT
  9
$CELTYPE
  6
BYLAYER
  9
$CECOLOR
 62
   256
  9
$CELTSCALE
 40
1.0
  9
$DISPSILH
 70
     0
  9
$DIMSCALE
 40
15.0
  9
$DIMASZ
 40
2.5
  9
$DIMEXO
 40
0.625
  9
$DIMDLI
 40
3.75
  9
$DIMRND
 40
0.0
  9
$DIMDLE
 40
0.0
  9
$DIMEXE
 40
1.25
  9
$DIMTP
 40
0.0
  9
$DIMTM
 40
0.0
  9
$DIMTXT
 40
2.5
  9
$DIMCEN
 40
2.5
  9
$DIMTSZ
 40
0.0
  9
$DIMTOL
 70
     0
  9
$DIMLIM
 70
     0
  9
$DIMTIH
 70
     0
  9
$DIMTOH
 70
     0
  9
$DIMSE1
 70
     0
  9
$DIMSE2
 70
     0
  9
$DIMTAD
 70
     1
  9
$DIMZIN
 70
     8
  9
$DIMBLK
  1

  9
$DIMASO
 70
     1
  9
$DIMSHO
 70
     1
  9
$DIMPOST
  1

  9
$DIMAPOST
  1

  9
$DIMALT
 70
     0
  9
$DIMALTD
 70
     4
  9
$DIMALTF
 40
0.0394
  9
$DIMLFAC
 40
1.0
  9
$DIMTOFL
 70
     1
  9
$DIMTVP
 40
0.0
  9
$DIMTIX
 70
     0
  9
$DIMSOXD
 70
     0
  9
$DIMSAH
 70
     0
  9
$DIMBLK1
  1

  9
$DIMBLK2
  1

  9
$DIMSTYLE
  2
STANDARD
  9
$DIMCLRD
 70
     0
  9
$DIMCLRE
 70
     0
  9
$DIMCLRT
 70
     0
  9
$DIMTFAC
 40
1.0
  9
$DIMGAP
 40
0.625
  9
$DIMJUST
 70
     0
  9
$DIMSD1
 70
     0
  9
$DIMSD2
 70
     0
  9
$DIMTOLJ
 70
     1
  9
$DIMTZIN
 70
     0
  9
$DIMALTZ
 70
     0
  9
$DIMALTTZ
 70
     0
  9
$DIMUPT
 70
     0
  9
$DIMDEC
 70
     4
  9
$DIMTDEC
 70
     4
  9
$DIMALTU
 70
     8
  9
$DIMALTTD
 70
     4
  9
$DIMTXSTY
  7
STANDARD
  9
$DIMAUNIT
 70
     0
  9
$DIMADEC
 70
     0
  9
$DIMALTRND
 40
0.0
  9
$DIMAZIN
 70
     0
  9
$DIMDSEP
 70
    46
  9
$DIMATFIT
 70
     3
  9
$DIMFRAC
 70
     0
  9
$DIMLDRBLK
  1

  9
$DIMLUNIT
 70
     6
  9
$DIMLWD
 70
    -2
  9
$DIMLWE
 70
    -2
  9
$DIMTMOVE
 70
     0
  9
$LUNITS
 70
     2
  9
$LUPREC
 70
     4
  9
$SKETCHINC
 40
1.0
  9
$FILLETRAD
 40
10.0
  9
$AUNITS
 70
     0
  9
$AUPREC
 70
     0
  9
$MENU
  1
acad
  9
$ELEVATION
 40
0.0
  9
$PELEVATION
 40
0.0
  9
$THICKNESS
 40
0.0
  9
$LIMCHECK
 70
     0
  9
$CHAMFERA
 40
10.0
  9
$CHAMFERB
 40
10.0
  9
$CHAMFERC
 40
20.0
  9
$CHAMFERD
 40
0.0
  9
$SKPOLY
 70
     0
  9
$TDCREATE
 40
2452111.335768865
  9
$TDUCREATE
 40
2452110.960768866
  9
$TDUPDATE
 40
2454547.693446643
  9
$TDUUPDATE
 40
2454547.318446643
  9
$TDINDWG
 40
0.8294089815
  9
$TDUSRTIMER
 40
0.8294089815
  9
$USRTIMER
 70
     1
  9
$ANGBASE
 50
0.0
  9
$ANGDIR
 70
     0
  9
$PDMODE
 70
     0
  9
$PDSIZE
 40
0.0
  9
$PLINEWID
 40
0.0
  9
$SPLFRAME
 70
     0
  9
$SPLINETYPE
 70
     6
  9
$SPLINESEGS
 70
     8
  9
$HANDSEED
  5
2B65
  9
$SURFTAB1
 70
     6
  9
$SURFTAB2
 70
     6
  9
$SURFTYPE
 70
     6
  9
$SURFU
 70
     6
  9
$SURFV
 70
     6
  9
$UCSBASE
  2

  9
$UCSNAME
  2

  9
$UCSORG
 10
0.0
 20
0.0
 30
0.0
  9
$UCSXDIR
 10
1.0
 20
0.0
 30
0.0
  9
$UCSYDIR
 10
0.0
 20
1.0
 30
0.0
  9
$UCSORTHOREF
  2

  9
$UCSORTHOVIEW
 70
     0
  9
$UCSORGTOP
 10
0.0
 20
0.0
 30
0.0
  9
$UCSORGBOTTOM
 10
0.0
 20
0.0
 30
0.0
  9
$UCSORGLEFT
 10
0.0
 20
0.0
 30
0.0
  9
$UCSORGRIGHT
 10
0.0
 20
0.0
 30
0.0
  9
$UCSORGFRONT
 10
0.0
 20
0.0
 30
0.0
  9
$UCSORGBACK
 10
0.0
 20
0.0
 30
0.0
  9
$PUCSBASE
  2

  9
$PUCSNAME
  2

  9
$PUCSORG
 10
0.0
 20
0.0
 30
0.0
  9
$PUCSXDIR
 10
1.0
 20
0.0
 30
0.0
  9
$PUCSYDIR
 10
0.0
 20
1.0
 30
0.0
  9
$PUCSORTHOREF
  2

  9
$PUCSORTHOVIEW
 70
     0
  9
$PUCSORGTOP
 10
0.0
 20
0.0
 30
0.0
  9
$PUCSORGBOTTOM
 10
0.0
 20
0.0
 30
0.0
  9
$PUCSORGLEFT
 10
0.0
 20
0.0
 30
0.0
  9
$PUCSORGRIGHT
 10
0.0
 20
0.0
 30
0.0
  9
$PUCSORGFRONT
 10
0.0
 20
0.0
 30
0.0
  9
$PUCSORGBACK
 10
0.0
 20
0.0
 30
0.0
  9
$USERI1
 70
     0
  9
$USERI2
 70
     0
  9
$USERI3
 70
     0
  9
$USERI4
 70
     0
  9
$USERI5
 70
     0
  9
$USERR1
 40
0.0
  9
$USERR2
 40
0.0
  9
$USERR3
 40
0.0
  9
$USERR4
 40
0.0
  9
$USERR5
 40
0.0
  9
$WORLDVIEW
 70
     1
  9
$SHADEDGE
 70
     3
  9
$SHADEDIF
 70
    70
  9
$TILEMODE
 70
     1
  9
$MAXACTVP
 70
    48
  9
$PINSBASE
 10
0.0
 20
0.0
 30
0.0
  9
$PLIMCHECK
 70
     0
  9
$PEXTMIN
 10
1.000000000000000E+20
 20
1.000000000000000E+20
 30
1.000000000000000E+20
  9
$PEXTMAX
 10
-1.000000000000000E+20
 20
-1.000000000000000E+20
 30
-1.000000000000000E+20
  9
$PLIMMIN
 10
0.0
 20
0.0
  9
$PLIMMAX
 10
420.0
 20
297.0
  9
$UNITMODE
 70
     0
  9
$VISRETAIN
 70
     1
  9
$PLINEGEN
 70
     0
  9
$PSLTSCALE
 70
     1
  9
$TREEDEPTH
 70
  3020
  9
$CMLSTYLE
  2
STANDARD
  9
$CMLJUST
 70
     0
  9
$CMLSCALE
 40
20.0
  9
$PROXYGRAPHICS
 70
     1
  9
$MEASUREMENT
 70
     1
  9
$CELWEIGHT
370
    -1
  9
$ENDCAPS
280
     0
  9
$JOINSTYLE
280
     0
  9
$LWDISPLAY
290
     0
  9
$INSUNITS
 70
     0
  9
$HYPERLINKBASE
  1

  9
$STYLESHEET
  1

  9
$XEDIT
290
     1
  9
$CEPSNTYPE
380
     0
  9
$PSTYLEMODE
290
     1
  9
$FINGERPRINTGUID
  2
{C9668057-E409-4CFD-A4F9-6C0551275C13}
  9
$VERSIONGUID
  2
{806F987D-42CD-44AC-81D3-B2B48A998B4E}
  9
$EXTNAMES
290
     1
  9
$PSVPSCALE
 40
0.0
  9
$OLESTARTUP
290
     0
  0
ENDSEC
  0
SECTION
  2
CLASSES
  0
CLASS
  1
LWPOLYLINE
  2
AcDbPolyline
  3
AutoCAD 2000
 90
    32768
280
     0
281
     1
  0
CLASS
  1
DICTIONARYVAR
  2
AcDbDictionaryVar
  3
AutoCAD 2000
 90
        0
280
     0
281
     0
  0
CLASS
  1
HATCH
  2
AcDbHatch
  3
AutoCAD 2000
 90
    32768
280
     0
281
     1
  0
CLASS
  1
ACDBDICTIONARYWDFLT
  2
AcDbDictionaryWithDefault
  3
AutoCAD 2000
 90
        0
280
     0
281
     0
  0
CLASS
  1
ACDBPLACEHOLDER
  2
AcDbPlaceHolder
  3
AutoCAD 2000
 90
        0
280
     0
281
     0
  0
CLASS
  1
LAYOUT
  2
AcDbLayout
  3
AutoCAD 2000
 90
        0
280
     0
281
     0
  0
ENDSEC
  0
SECTION
  2
TABLES
  0
TABLE
  2
VPORT
  5
8
330
0
100
AcDbSymbolTable
 70
     2
  0
VPORT
  5
2B64
330
8
100
AcDbSymbolTableRecord
100
AcDbViewportTableRecord
  2
*Active
 70
     0
 10
0.0
 20
0.0
 11
1.0
 21
1.0
 12
7169.162957143011
 22
4918.753485236768
 13
0.0
 23
0.0
 14
10.0
 24
10.0
 15
10.0
 25
10.0
 16
0.0
 26
0.0
 36
1.0
 17
0.0
 27
0.0
 37
0.0
 40
3206.985016323969
 41
1.731203007518796
 42
50.0
 43
0.0
 44
0.0
 50
0.0
 51
0.0
 71
     0
 72
   100
 73
     1
 74
     1
 75
     0
 76
     0
 77
     0
 78
     0
281
     0
 65
     1
110
0.0
120
0.0
130
0.0
111
1.0
121
0.0
131
0.0
112
0.0
122
1.0
132
0.0
 79
     0
146
0.0
  0
ENDTAB
  0
TABLE
  2
LTYPE
  5
5
330
0
100
AcDbSymbolTable
 70
    46
  0
LTYPE
  5
12
330
5
100
AcDbSymbolTableRecord
100
AcDbLinetypeTableRecord
  2
BYBLOCK
 70
     0
  3

 72
    65
 73
     0
 40
0.0
  0
LTYPE
  5
13
330
5
100
AcDbSymbolTableRecord
100
AcDbLinetypeTableRecord
  2
BYLAYER
 70
     0
  3

 72
    65
 73
     0
 40
0.0
  0
LTYPE
  5
14
330
5
100
AcDbSymbolTableRecord
100
AcDbLinetypeTableRecord
  2
CONTINUOUS
 70
     0
  3
Solid line
 72
    65
 73
     0
 40
0.0
  0
LTYPE
  5
128
330
5
100
AcDbSymbolTableRecord
100
AcDbLinetypeTableRecord
  2
ACAD_ISO02W100
 70
     0
  3
ISO dash __ __ __ __ __ __ __ __ __ __ __ __ __
 72
    65
 73
     2
 40
15.0
 49
12.0
 74
     0
 49
-3.0
 74
     0
  0
LTYPE
  5
129
330
5
100
AcDbSymbolTableRecord
100
AcDbLinetypeTableRecord
  2
ACAD_ISO03W100
 70
     0
  3
ISO dash space __    __    __    __    __    __
 72
    65
 73
     2
 40
30.0
 49
12.0
 74
     0
 49
-18.0
 74
     0
  0
LTYPE
  5
12A
330
5
100
AcDbSymbolTableRecord
100
AcDbLinetypeTableRecord
  2
ACAD_ISO04W100
 70
     0
  3
ISO long-dash dot ____ . ____ . ____ . ____ . _
 72
    65
 73
     4
 40
30.5
 49
24.0
 74
     0
 49
-3.0
 74
     0
 49
0.5
 74
     0
 49
-3.0
 74
     0
  0
LTYPE
  5
12B
330
5
100
AcDbSymbolTableRecord
100
AcDbLinetypeTableRecord
  2
ACAD_ISO05W100
 70
     0
  3
ISO long-dash double-dot ____ .. ____ .. ____ .
 72
    65
 73
     8
 40
37.5
 49
24.0
 74
     0
 49
-3.0
 74
     0
 49
0.5
 74
     0
 49
-3.0
 74
     0
 49
0.5
 74
     0
 49
-3.0
 74
     0
 49
0.5
 74
     0
 49
-3.0
 74
     0
  0
LTYPE
  5
12C
330
5
100
AcDbSymbolTableRecord
100
AcDbLinetypeTableRecord
  2
ACAD_ISO06W100
 70
     0
  3
ISO long-dash triple-dot ____ ... ____ ... ____
 72
    65
 73
     8
 40
37.5
 49
24.0
 74
     0
 49
-3.0
 74
     0
 49
0.5
 74
     0
 49
-3.0
 74
     0
 49
0.5
 74
     0
 49
-3.0
 74
     0
 49
0.5
 74
     0
 49
-3.0
 74
     0
  0
LTYPE
  5
12D
330
5
100
AcDbSymbolTableRecord
100
AcDbLinetypeTableRecord
  2
ACAD_ISO07W100
 70
     0
  3
ISO dot . . . . . . . . . . . . . . . . . . . .
 72
    65
 73
     2
 40
3.5
 49
0.5
 74
     0
 49
-3.0
 74
     0
  0
LTYPE
  5
12E
330
5
100
AcDbSymbolTableRecord
100
AcDbLinetypeTableRecord
  2
ACAD_ISO08W100
 70
     0
  3
ISO long-dash short-dash ____ __ ____ __ ____ _
 72
    65
 73
     4
 40
36.0
 49
24.0
 74
     0
 49
-3.0
 74
     0
 49
6.0
 74
     0
 49
-3.0
 74
     0
  0
LTYPE
  5
12F
330
5
100
AcDbSymbolTableRecord
100
AcDbLinetypeTableRecord
  2
ACAD_ISO09W100
 70
     0
  3
ISO long-dash double-short-dash ____ __ __ ____
 72
    65
 73
     6
 40
45.0
 49
24.0
 74
     0
 49
-3.0
 74
     0
 49
6.0
 74
     0
 49
-3.0
 74
     0
 49
6.0
 74
     0
 49
-3.0
 74
     0
  0
LTYPE
  5
130
330
5
100
AcDbSymbolTableRecord
100
AcDbLinetypeTableRecord
  2
ACAD_ISO10W100
 70
     0
  3
ISO dash dot __ . __ . __ . __ . __ . __ . __ .
 72
    65
 73
     4
 40
18.5
 49
12.0
 74
     0
 49
-3.0
 74
     0
 49
0.5
 74
     0
 49
-3.0
 74
     0
  0
LTYPE
  5
131
330
5
100
AcDbSymbolTableRecord
100
AcDbLinetypeTableRecord
  2
ACAD_ISO11W100
 70
     0
  3
ISO double-dash dot __ __ . __ __ . __ __ . __ 
 72
    65
 73
     6
 40
33.5
 49
12.0
 74
     0
 49
-3.0
 74
     0
 49
12.0
 74
     0
 49
-3.0
 74
     0
 49
0.5
 74
     0
 49
-3.0
 74
     0
  0
LTYPE
  5
132
330
5
100
AcDbSymbolTableRecord
100
AcDbLinetypeTableRecord
  2
ACAD_ISO12W100
 70
     0
  3
ISO dash double-dot __ . . __ . . __ . . __ . .
 72
    65
 73
     6
 40
22.0
 49
12.0
 74
     0
 49
-3.0
 74
     0
 49
0.5
 74
     0
 49
-3.0
 74
     0
 49
0.5
 74
     0
 49
-3.0
 74
     0
  0
LTYPE
  5
133
330
5
100
AcDbSymbolTableRecord
100
AcDbLinetypeTableRecord
  2
ACAD_ISO13W100
 70
     0
  3
ISO double-dash double-dot __ __ . . __ __ . . 
 72
    65
 73
     8
 40
37.0
 49
12.0
 74
     0
 49
-3.0
 74
     0
 49
12.0
 74
     0
 49
-3.0
 74
     0
 49
0.5
 74
     0
 49
-3.0
 74
     0
 49
0.5
 74
     0
 49
-3.0
 74
     0
  0
LTYPE
  5
134
330
5
100
AcDbSymbolTableRecord
100
AcDbLinetypeTableRecord
  2
ACAD_ISO14W100
 70
     0
  3
ISO dash triple-dot __ . . . __ . . . __ . . . 
 72
    65
 73
     8
 40
25.5
 49
12.0
 74
     0
 49
-3.0
 74
     0
 49
0.5
 74
     0
 49
-3.0
 74
     0
 49
0.5
 74
     0
 49
-3.0
 74
     0
 49
0.5
 74
     0
 49
-3.0
 74
     0
  0
LTYPE
  5
135
330
5
100
AcDbSymbolTableRecord
100
AcDbLinetypeTableRecord
  2
ACAD_ISO15W100
 70
     0
  3
ISO double-dash triple-dot __ __ . . . __ __ . 
 72
    65
 73
    10
 40
40.49999999999999
 49
12.0
 74
     0
 49
-3.0
 74
     0
 49
12.0
 74
     0
 49
-3.0
 74
     0
 49
0.5
 74
     0
 49
-3.0
 74
     0
 49
0.5
 74
     0
 49
-3.0
 74
     0
 49
0.5
 74
     0
 49
-3.0
 74
     0
  0
LTYPE
  5
136
330
5
100
AcDbSymbolTableRecord
100
AcDbLinetypeTableRecord
  2
BATTING
 70
     0
  3
Batting SSSSSSSSSSSSSSSSSSSSSSSSSSSSSSSSSSSSSSS
 72
    65
 73
     4
 40
10.16253999999999
 49
0.00254
 74
     0
 49
-2.54
 74
     4
 75
   134
340
127
 46
2.54
 50
0.0
 44
-2.54
 45
0.0
 49
-5.08
 74
     4
 75
   134
340
127
 46
2.54
 50
180.0
 44
2.54
 45
0.0
 49
-2.54
 74
     0
  0
LTYPE
  5
137
330
5
100
AcDbSymbolTableRecord
100
AcDbLinetypeTableRecord
  2
BORDER
 70
     0
  3
Border __ __ . __ __ . __ __ . __ __ . __ __ .
 72
    65
 73
     6
 40
44.45
 49
12.7
 74
     0
 49
-6.349999999999999
 74
     0
 49
12.7
 74
     0
 49
-6.349999999999999
 74
     0
 49
0.0
 74
     0
 49
-6.349999999999999
 74
     0
  0
LTYPE
  5
138
330
5
100
AcDbSymbolTableRecord
100
AcDbLinetypeTableRecord
  2
BORDER2
 70
     0
  3
Border (.5x) __.__.__.__.__.__.__.__.__.__.__.
 72
    65
 73
     6
 40
22.225
 49
6.349999999999999
 74
     0
 49
-3.174999999999999
 74
     0
 49
6.349999999999999
 74
     0
 49
-3.174999999999999
 74
     0
 49
0.0
 74
     0
 49
-3.174999999999999
 74
     0
  0
LTYPE
  5
139
330
5
100
AcDbSymbolTableRecord
100
AcDbLinetypeTableRecord
  2
BORDERX2
 70
     0
  3
Border (2x) ____  ____  .  ____  ____  .  ___
 72
    65
 73
     6
 40
88.9
 49
25.4
 74
     0
 49
-12.7
 74
     0
 49
25.4
 74
     0
 49
-12.7
 74
     0
 49
0.0
 74
     0
 49
-12.7
 74
     0
  0
LTYPE
  5
13A
330
5
100
AcDbSymbolTableRecord
100
AcDbLinetypeTableRecord
  2
CENTER
 70
     0
  3
Center ____ _ ____ _ ____ _ ____ _ ____ _ ____
 72
    65
 73
     4
 40
50.8
 49
31.75
 74
     0
 49
-6.349999999999999
 74
     0
 49
6.349999999999999
 74
     0
 49
-6.349999999999999
 74
     0
  0
LTYPE
  5
13B
330
5
100
AcDbSymbolTableRecord
100
AcDbLinetypeTableRecord
  2
CENTER2
 70
     0
  3
Center (.5x) ___ _ ___ _ ___ _ ___ _ ___ _ ___
 72
    65
 73
     4
 40
28.57499999999999
 49
19.05
 74
     0
 49
-3.174999999999999
 74
     0
 49
3.174999999999999
 74
     0
 49
-3.174999999999999
 74
     0
  0
LTYPE
  5
13C
330
5
100
AcDbSymbolTableRecord
100
AcDbLinetypeTableRecord
  2
CENTERX2
 70
     0
  3
Center (2x) ________  __  ________  __  _____
 72
    65
 73
     4
 40
101.6
 49
63.5
 74
     0
 49
-12.7
 74
     0
 49
12.7
 74
     0
 49
-12.7
 74
     0
  0
LTYPE
  5
13D
330
5
100
AcDbSymbolTableRecord
100
AcDbLinetypeTableRecord
  2
DASHDOT
 70
     0
  3
Dash dot __ . __ . __ . __ . __ . __ . __ . __
 72
    65
 73
     4
 40
25.4
 49
12.7
 74
     0
 49
-6.349999999999999
 74
     0
 49
0.0
 74
     0
 49
-6.349999999999999
 74
     0
  0
LTYPE
  5
13E
330
5
100
AcDbSymbolTableRecord
100
AcDbLinetypeTableRecord
  2
DASHDOT2
 70
     0
  3
Dash dot (.5x) _._._._._._._._._._._._._._._.
 72
    65
 73
     4
 40
12.7
 49
6.349999999999999
 74
     0
 49
-3.174999999999999
 74
     0
 49
0.0
 74
     0
 49
-3.174999999999999
 74
     0
  0
LTYPE
  5
13F
330
5
100
AcDbSymbolTableRecord
100
AcDbLinetypeTableRecord
  2
DASHDOTX2
 70
     0
  3
Dash dot (2x) ____  .  ____  .  ____  .  ___
 72
    65
 73
     4
 40
50.8
 49
25.4
 74
     0
 49
-12.7
 74
     0
 49
0.0
 74
     0
 49
-12.7
 74
     0
  0
LTYPE
  5
140
330
5
100
AcDbSymbolTableRecord
100
AcDbLinetypeTableRecord
  2
DASHED
 70
     0
  3
Dashed __ __ __ __ __ __ __ __ __ __ __ __ __ _
 72
    65
 73
     2
 40
19.04999999999999
 49
12.7
 74
     0
 49
-6.349999999999999
 74
     0
  0
LTYPE
  5
141
330
5
100
AcDbSymbolTableRecord
100
AcDbLinetypeTableRecord
  2
DASHED2
 70
     0
  3
Dashed (.5x) _ _ _ _ _ _ _ _ _ _ _ _ _ _ _ _ _
 72
    65
 73
     2
 40
9.524999999999998
 49
6.349999999999999
 74
     0
 49
-3.174999999999999
 74
     0
  0
LTYPE
  5
142
330
5
100
AcDbSymbolTableRecord
100
AcDbLinetypeTableRecord
  2
DASHEDX2
 70
     0
  3
Dashed (2x) ____  ____  ____  ____  ____  ___
 72
    65
 73
     2
 40
38.09999999999999
 49
25.4
 74
     0
 49
-12.7
 74
     0
  0
LTYPE
  5
143
330
5
100
AcDbSymbolTableRecord
100
AcDbLinetypeTableRecord
  2
DIVIDE
 70
     0
  3
Divide ____ . . ____ . . ____ . . ____ . . ____
 72
    65
 73
     6
 40
31.74999999999999
 49
12.7
 74
     0
 49
-6.349999999999999
 74
     0
 49
0.0
 74
     0
 49
-6.349999999999999
 74
     0
 49
0.0
 74
     0
 49
-6.349999999999999
 74
     0
  0
LTYPE
  5
144
330
5
100
AcDbSymbolTableRecord
100
AcDbLinetypeTableRecord
  2
DIVIDE2
 70
     0
  3
Divide (.5x) __..__..__..__..__..__..__..__.._
 72
    65
 73
     6
 40
15.87499999999999
 49
6.349999999999999
 74
     0
 49
-3.174999999999999
 74
     0
 49
0.0
 74
     0
 49
-3.174999999999999
 74
     0
 49
0.0
 74
     0
 49
-3.174999999999999
 74
     0
  0
LTYPE
  5
145
330
5
100
AcDbSymbolTableRecord
100
AcDbLinetypeTableRecord
  2
DIVIDEX2
 70
     0
  3
Divide (2x) ________  .  .  ________  .  .  _
 72
    65
 73
     6
 40
63.49999999999999
 49
25.4
 74
     0
 49
-12.7
 74
     0
 49
0.0
 74
     0
 49
-12.7
 74
     0
 49
0.0
 74
     0
 49
-12.7
 74
     0
  0
LTYPE
  5
146
330
5
100
AcDbSymbolTableRecord
100
AcDbLinetypeTableRecord
  2
DOT
 70
     0
  3
Dot . . . . . . . . . . . . . . . . . . . . . .
 72
    65
 73
     2
 40
6.349999999999999
 49
0.0
 74
     0
 49
-6.349999999999999
 74
     0
  0
LTYPE
  5
147
330
5
100
AcDbSymbolTableRecord
100
AcDbLinetypeTableRecord
  2
DOT2
 70
     0
  3
Dot (.5x) .....................................
 72
    65
 73
     2
 40
3.174999999999999
 49
0.0
 74
     0
 49
-3.174999999999999
 74
     0
  0
LTYPE
  5
148
330
5
100
AcDbSymbolTableRecord
100
AcDbLinetypeTableRecord
  2
DOTX2
 70
     0
  3
Dot (2x) .  .  .  .  .  .  .  .  .  .  .  .  . 
 72
    65
 73
     2
 40
12.7
 49
0.0
 74
     0
 49
-12.7
 74
     0
  0
LTYPE
  5
149
330
5
100
AcDbSymbolTableRecord
100
AcDbLinetypeTableRecord
  2
FENCELINE1
 70
     0
  3
Fenceline circle ----0-----0----0-----0----0---
 72
    65
 73
     4
 40
36.82999999999999
 49
6.349999999999999
 74
     0
 49
-2.54
 74
     4
 75
   133
340
127
 46
2.54
 50
0.0
 44
-2.54
 45
0.0
 49
-2.54
 74
     0
 49
25.4
 74
     0
  0
LTYPE
  5
14A
330
5
100
AcDbSymbolTableRecord
100
AcDbLinetypeTableRecord
  2
FENCELINE2
 70
     0
  3
Fenceline square ----[]-----[]----[]-----[]----
 72
    65
 73
     4
 40
36.82999999999999
 49
6.349999999999999
 74
     0
 49
-2.54
 74
     4
 75
   132
340
127
 46
2.54
 50
0.0
 44
-2.54
 45
0.0
 49
-2.54
 74
     0
 49
25.4
 74
     0
  0
LTYPE
  5
14B
330
5
100
AcDbSymbolTableRecord
100
AcDbLinetypeTableRecord
  2
GAS_LINE
 70
     0
  3
Gas line ----GAS----GAS----GAS----GAS----GAS---
 72
    65
 73
     3
 40
24.13
 49
12.7
 74
     0
 49
-5.08
 74
     2
 75
     0
340
F
 46
2.54
 50
0.0
 44
-2.54
 45
-1.27
  9
GAS
 49
-6.349999999999999
 74
     0
  0
LTYPE
  5
14C
330
5
100
AcDbSymbolTableRecord
100
AcDbLinetypeTableRecord
  2
HIDDEN
 70
     0
  3
Hidden __ __ __ __ __ __ __ __ __ __ __ __ __ _
 72
    65
 73
     2
 40
9.524999999999998
 49
6.349999999999999
 74
     0
 49
-3.174999999999999
 74
     0
  0
LTYPE
  5
14D
330
5
100
AcDbSymbolTableRecord
100
AcDbLinetypeTableRecord
  2
HIDDEN2
 70
     0
  3
Hidden (.5x) _ _ _ _ _ _ _ _ _ _ _ _ _ _ _ _ _
 72
    65
 73
     2
 40
4.762499999999999
 49
3.174999999999999
 74
     0
 49
-1.587499999999999
 74
     0
  0
LTYPE
  5
14E
330
5
100
AcDbSymbolTableRecord
100
AcDbLinetypeTableRecord
  2
HIDDENX2
 70
     0
  3
Hidden (2x) ____ ____ ____ ____ ____ ____ ____
 72
    65
 73
     2
 40
19.04999999999999
 49
12.7
 74
     0
 49
-6.349999999999999
 74
     0
  0
LTYPE
  5
14F
330
5
100
AcDbSymbolTableRecord
100
AcDbLinetypeTableRecord
  2
HOT_WATER_SUPPLY
 70
     0
  3
Hot water supply ---- HW ---- HW ---- HW ----
 72
    65
 73
     3
 40
22.86
 49
12.7
 74
     0
 49
-5.08
 74
     2
 75
     0
340
F
 46
2.54
 50
0.0
 44
-2.54
 45
-1.27
  9
HW
 49
-5.08
 74
     0
  0
LTYPE
  5
150
330
5
100
AcDbSymbolTableRecord
100
AcDbLinetypeTableRecord
  2
PHANTOM
 70
     0
  3
Phantom ______  __  __  ______  __  __  ______
 72
    65
 73
     6
 40
63.5
 49
31.75
 74
     0
 49
-6.349999999999999
 74
     0
 49
6.349999999999999
 74
     0
 49
-6.349999999999999
 74
     0
 49
6.349999999999999
 74
     0
 49
-6.349999999999999
 74
     0
  0
LTYPE
  5
151
330
5
100
AcDbSymbolTableRecord
100
AcDbLinetypeTableRecord
  2
PHANTOM2
 70
     0
  3
Phantom (.5x) ___ _ _ ___ _ _ ___ _ _ ___ _ _
 72
    65
 73
     6
 40
31.75
 49
15.875
 74
     0
 49
-3.174999999999999
 74
     0
 49
3.174999999999999
 74
     0
 49
-3.174999999999999
 74
     0
 49
3.174999999999999
 74
     0
 49
-3.174999999999999
 74
     0
  0
LTYPE
  5
152
330
5
100
AcDbSymbolTableRecord
100
AcDbLinetypeTableRecord
  2
PHANTOMX2
 70
     0
  3
Phantom (2x) ____________    ____    ____   _
 72
    65
 73
     6
 40
127.0
 49
63.5
 74
     0
 49
-12.7
 74
     0
 49
12.7
 74
     0
 49
-12.7
 74
     0
 49
12.7
 74
     0
 49
-12.7
 74
     0
  0
LTYPE
  5
153
330
5
100
AcDbSymbolTableRecord
100
AcDbLinetypeTableRecord
  2
TRACKS
 70
     0
  3
Tracks -|-|-|-|-|-|-|-|-|-|-|-|-|-|-|-|-|-|-|-|
 72
    65
 73
     2
 40
7.62
 49
3.81
 74
     4
 75
   130
340
127
 46
6.349999999999999
 50
0.0
 44
0.0
 45
0.0
 49
3.81
 74
     0
  0
LTYPE
  5
154
330
5
100
AcDbSymbolTableRecord
100
AcDbLinetypeTableRecord
  2
ZIGZAG
 70
     0
  3
Zig zag /\/\/\/\/\/\/\/\/\/\/\/\/\/\/\/\/\/\/\/
 72
    65
 73
     4
 40
20.32254
 49
0.00254
 74
     0
 49
-5.08
 74
     4
 75
   131
340
127
 46
5.08
 50
0.0
 44
-5.08
 45
0.0
 49
-10.16
 74
     4
 75
   131
340
127
 46
5.08
 50
180.0
 44
5.08
 45
0.0
 49
-5.08
 74
     0
  0
ENDTAB
  0
TABLE
  2
LAYER
  5
2
330
0
100
AcDbSymbolTable
 70
     9
  0
LAYER
  5
E
330
2
100
AcDbSymbolTableRecord
100
AcDbLayerTableRecord
  2
0
 70
     0
 62
     7
  6
CONTINUOUS
370
    -3
390
15FD
  0
LAYER
  5
20
330
2
100
AcDbSymbolTableRecord
100
AcDbLayerTableRecord
  2
DEFPOINTS
 70
     0
 62
     7
  6
CONTINUOUS
290
     0
370
    -3
390
15FD
  0
LAYER
  5
21
330
2
100
AcDbSymbolTableRecord
100
AcDbLayerTableRecord
  2
OBJECT
 70
     0
 62
     7
  6
CONTINUOUS
370
    -3
390
15FD
  0
LAYER
  5
155
330
2
100
AcDbSymbolTableRecord
100
AcDbLayerTableRecord
  2
上書線
 70
     0
 62
     7
  6
CONTINUOUS
370
    -3
390
15FD
  0
LAYER
  5
156
330
2
100
AcDbSymbolTableRecord
100
AcDbLayerTableRecord
  2
基準線
 70
     0
 62
    -1
  6
CONTINUOUS
370
    -3
390
15FD
  0
LAYER
  5
157
330
2
100
AcDbSymbolTableRecord
100
AcDbLayerTableRecord
  2
点線
 70
     0
 62
     5
  6
HIDDEN
370
    -3
390
15FD
  0
LAYER
  5
158
330
2
100
AcDbSymbolTableRecord
100
AcDbLayerTableRecord
  2
寸法線
 70
     0
 62
     2
  6
CONTINUOUS
370
    -3
390
15FD
  0
LAYER
  5
19D7
330
2
100
AcDbSymbolTableRecord
100
AcDbLayerTableRecord
  2
上線
 70
     0
 62
     7
  6
CONTINUOUS
370
    -3
390
15FD
  0
LAYER
  5
26BB
330
2
100
AcDbSymbolTableRecord
100
AcDbLayerTableRecord
  2
WUWAGAKI
 70
     0
 62
     7
  6
CONTINUOUS
370
    -3
390
15FD
  0
ENDTAB
  0
TABLE
  2
STYLE
  5
3
330
0
100
AcDbSymbolTable
 70
     3
  0
STYLE
  5
F
330
3
100
AcDbSymbolTableRecord
100
AcDbTextStyleTableRecord
  2
STANDARD
 70
     0
 40
0.0
 41
1.0
 50
0.0
 71
     0
 42
2.5
  3
MS PMincho.ttf
  4

1001
ACAD
1000
MS PMincho
1071
    32786
  0
STYLE
  5
22
330
3
100
AcDbSymbolTableRecord
100
AcDbTextStyleTableRecord
  2
ADESK1
 70
     0
 40
0.0
 41
1.0
 50
0.0
 71
     0
 42
5.0
  3
romans
  4
bigfont
  0
STYLE
  5
127
330
3
100
AcDbSymbolTableRecord
100
AcDbTextStyleTableRecord
  2

 70
     1
 40
0.0
 41
1.0
 50
0.0
 71
     0
 42
2.5
  3
ltypeshp.shx
  4

  0
ENDTAB
  0
TABLE
  2
VIEW
  5
6
330
0
100
AcDbSymbolTable
 70
     0
  0
ENDTAB
  0
TABLE
  2
UCS
  5
7
330
0
100
AcDbSymbolTable
 70
     0
  0
ENDTAB
  0
TABLE
  2
APPID
  5
9
330
0
100
AcDbSymbolTable
 70
     2
  0
APPID
  5
10
330
9
100
AcDbSymbolTableRecord
100
AcDbRegAppTableRecord
  2
ACAD
 70
     0
  0
APPID
  5
1213
330
9
100
AcDbSymbolTableRecord
100
AcDbRegAppTableRecord
  2
DRAWINGVARIABLESXDATA
 70
     0
  0
ENDTAB
  0
TABLE
  2
DIMSTYLE
  5
A
330
0
100
AcDbSymbolTable
 70
     2
100
AcDbDimStyleTable
 71
     1
340
1D
  0
DIMSTYLE
105
1D
330
A
100
AcDbSymbolTableRecord
100
AcDbDimStyleTableRecord
  2
STANDARD
 70
     0
340
F
  0
DIMSTYLE
105
23
330
A
100
AcDbSymbolTableRecord
100
AcDbDimStyleTableRecord
  2
JIS
 70
     0
 41
2.5
 42
1.0
 43
7.0
 44
1.0
 73
     0
 74
     0
 77
     1
 78
     8
140
2.5
141
0.0
143
0.0394
147
0.0
172
     1
174
     1
175
     1
340
F
  0
ENDTAB
  0
TABLE
  2
BLOCK_RECORD
  5
1
330
0
100
AcDbSymbolTable
 70
     1
  0
BLOCK_RECORD
  5
18
330
1
100
AcDbSymbolTableRecord
100
AcDbBlockTableRecord
  2
*MODEL_SPACE
340
1600
  0
BLOCK_RECORD
  5
15
330
1
100
AcDbSymbolTableRecord
100
AcDbBlockTableRecord
  2
*PAPER_SPACE
340
1601
  0
BLOCK_RECORD
  5
24
330
1
100
AcDbSymbolTableRecord
100
AcDbBlockTableRecord
  2
JIS_A4L
340
0
  0
ENDTAB
  0
ENDSEC
  0
SECTION
  2
BLOCKS
  0
BLOCK
  5
19
330
18
100
AcDbEntity
  8
0
100
AcDbBlockBegin
  2
*MODEL_SPACE
 70
     2
 10
0.0
 20
0.0
 30
0.0
  3
*MODEL_SPACE
  1

  0
ENDBLK
  5
1A
330
18
100
AcDbEntity
  8
0
100
AcDbBlockEnd
  0
BLOCK
  5
16
330
15
100
AcDbEntity
 67
     1
  8
0
100
AcDbBlockBegin
  2
*PAPER_SPACE
 70
     0
 10
0.0
 20
0.0
 30
0.0
  3
*PAPER_SPACE
  1

  0
ENDBLK
  5
17
330
15
100
AcDbEntity
 67
     1
  8
0
100
AcDbBlockEnd
  0
BLOCK
  5
A1
330
24
100
AcDbEntity
  8
0
100
AcDbBlockBegin
  2
JIS_A4L
 70
     2
 10
0.0
 20
0.0
 30
0.0
  3
JIS_A4L
  1

  0
LINE
  5
25
330
24
100
AcDbEntity
  8
0
100
AcDbLine
 10
0.0
 20
0.0
 30
0.0
 11
0.0
 21
10.0
 31
0.0
  0
LINE
  5
26
330
24
100
AcDbEntity
  8
0
100
AcDbLine
 10
0.0
 20
210.0
 30
0.0
 11
25.0
 21
210.0
 31
0.0
  0
LINE
  5
27
330
24
100
AcDbEntity
  8
0
100
AcDbLine
 10
297.0
 20
210.0
 30
0.0
 11
297.0
 21
200.0
 31
0.0
  0
LINE
  5
28
330
24
100
AcDbEntity
  8
0
100
AcDbLine
 10
297.0
 20
0.0
 30
0.0
 11
287.0
 21
0.0
 31
0.0
  0
LINE
  5
29
330
24
100
AcDbEntity
  8
0
100
AcDbLine
 10
25.0
 20
10.0
 30
0.0
 11
25.0
 21
200.0
 31
0.0
  0
LINE
  5
2A
330
24
100
AcDbEntity
  8
0
100
AcDbLine
 10
287.0
 20
10.0
 30
0.0
 11
25.0
 21
10.0
 31
0.0
  0
LINE
  5
2B
330
24
100
AcDbEntity
  8
0
100
AcDbLine
 10
287.0
 20
200.0
 30
0.0
 11
287.0
 21
10.0
 31
0.0
  0
LINE
  5
2C
330
24
100
AcDbEntity
  8
0
100
AcDbLine
 10
25.0
 20
200.0
 30
0.0
 11
287.0
 21
200.0
 31
0.0
  0
LINE
  5
2D
330
24
100
AcDbEntity
  8
0
100
AcDbLine
 10
0.0
 20
200.0
 30
0.0
 11
0.0
 21
210.0
 31
0.0
  0
LINE
  5
2E
330
24
100
AcDbEntity
  8
0
100
AcDbLine
 10
25.0
 20
0.0
 30
0.0
 11
0.0
 21
0.0
 31
0.0
  0
LINE
  5
2F
330
24
100
AcDbEntity
  8
0
100
AcDbLine
 10
297.0
 20
10.0
 30
0.0
 11
297.0
 21
0.0
 31
0.0
  0
LINE
  5
30
330
24
100
AcDbEntity
  8
0
100
AcDbLine
 10
287.0
 20
210.0
 30
0.0
 11
297.0
 21
210.0
 31
0.0
  0
ATTDEF
  5
31
330
24
100
AcDbEntity
  8
0
 62
     0
100
AcDbText
 10
19.0
 20
10.0
 30
0.0
 40
3.0
  1

 50
90.0
  7
ADESK1
100
AcDbAttributeDefinition
  3

  2
USER
 70
     8
  0
ATTDEF
  5
32
330
24
100
AcDbEntity
  8
0
 62
     0
100
AcDbText
 10
19.0
 20
70.0
 30
0.0
 40
3.0
  1

 50
90.0
  7
ADESK1
100
AcDbAttributeDefinition
  3

  2
REVDATE
 70
     8
  0
ATTDEF
  5
33
330
24
100
AcDbEntity
  8
0
 62
     0
100
AcDbText
 10
19.0
 20
118.0
 30
0.0
 40
3.0
  1

 50
90.0
  7
ADESK1
100
AcDbAttributeDefinition
  3

  2
FNAME
 70
     8
  0
LINE
  5
34
330
24
100
AcDbEntity
  8
OBJECT
100
AcDbLine
 10
130.0
 20
16.0
 30
0.0
 11
25.0
 21
16.0
 31
0.0
  0
LINE
  5
35
330
24
100
AcDbEntity
  8
OBJECT
100
AcDbLine
 10
130.0
 20
22.0
 30
0.0
 11
25.0
 21
22.0
 31
0.0
  0
LINE
  5
36
330
24
100
AcDbEntity
  8
OBJECT
100
AcDbLine
 10
130.0
 20
28.0
 30
0.0
 11
25.0
 21
28.0
 31
0.0
  0
LINE
  5
37
330
24
100
AcDbEntity
  8
OBJECT
100
AcDbLine
 10
130.0
 20
34.0
 30
0.0
 11
25.0
 21
34.0
 31
0.0
  0
LINE
  5
38
330
24
100
AcDbEntity
  8
OBJECT
100
AcDbLine
 10
130.0
 20
40.0
 30
0.0
 11
25.0
 21
40.0
 31
0.0
  0
LINE
  5
39
330
24
100
AcDbEntity
  8
OBJECT
100
AcDbLine
 10
28.0
 20
11.53589799999999
 30
0.0
 11
30.0
 21
15.0
 31
0.0
  0
LINE
  5
3A
330
24
100
AcDbEntity
  8
OBJECT
100
AcDbLine
 10
32.0
 20
11.53589799999999
 30
0.0
 11
30.0
 21
15.0
 31
0.0
  0
LINE
  5
3B
330
24
100
AcDbEntity
  8
OBJECT
100
AcDbLine
 10
35.0
 20
10.0
 30
0.0
 11
35.0
 21
40.0
 31
0.0
  0
LINE
  5
3C
330
24
100
AcDbEntity
  8
OBJECT
100
AcDbLine
 10
50.0
 20
10.0
 30
0.0
 11
50.0
 21
40.0
 31
0.0
  0
LINE
  5
3D
330
24
100
AcDbEntity
  8
OBJECT
100
AcDbLine
 10
80.0
 20
10.0
 30
0.0
 11
80.0
 21
40.0
 31
0.0
  0
LINE
  5
3E
330
24
100
AcDbEntity
  8
OBJECT
100
AcDbLine
 10
28.0
 20
11.53589799999999
 30
0.0
 11
32.0
 21
11.53589799999999
 31
0.0
  0
LINE
  5
3F
330
24
100
AcDbEntity
  8
OBJECT
100
AcDbLine
 10
39.5
 20
13.0
 30
0.0
 11
40.49999999999999
 21
13.0
 31
0.0
  0
LINE
  5
40
330
24
100
AcDbEntity
  8
OBJECT
100
AcDbLine
 10
44.5
 20
13.0
 30
0.0
 11
45.49999999999999
 21
13.0
 31
0.0
  0
LINE
  5
41
330
24
100
AcDbEntity
  8
OBJECT
100
AcDbLine
 10
32.0
 20
17.535898
 30
0.0
 11
30.0
 21
20.99999999999999
 31
0.0
  0
LINE
  5
42
330
24
100
AcDbEntity
  8
OBJECT
100
AcDbLine
 10
28.0
 20
17.535898
 30
0.0
 11
32.0
 21
17.535898
 31
0.0
  0
LINE
  5
43
330
24
100
AcDbEntity
  8
OBJECT
100
AcDbLine
 10
28.0
 20
17.535898
 30
0.0
 11
30.0
 21
20.99999999999999
 31
0.0
  0
LINE
  5
44
330
24
100
AcDbEntity
  8
OBJECT
100
AcDbLine
 10
32.0
 20
23.53589799999999
 30
0.0
 11
30.0
 21
26.99999999999999
 31
0.0
  0
LINE
  5
45
330
24
100
AcDbEntity
  8
OBJECT
100
AcDbLine
 10
28.0
 20
23.53589799999999
 30
0.0
 11
32.0
 21
23.53589799999999
 31
0.0
  0
LINE
  5
46
330
24
100
AcDbEntity
  8
OBJECT
100
AcDbLine
 10
28.0
 20
23.53589799999999
 30
0.0
 11
30.0
 21
26.99999999999999
 31
0.0
  0
LINE
  5
47
330
24
100
AcDbEntity
  8
OBJECT
100
AcDbLine
 10
28.0
 20
35.53589799999999
 30
0.0
 11
30.0
 21
39.0
 31
0.0
  0
LINE
  5
48
330
24
100
AcDbEntity
  8
OBJECT
100
AcDbLine
 10
32.0
 20
35.53589799999999
 30
0.0
 11
30.0
 21
39.0
 31
0.0
  0
LINE
  5
49
330
24
100
AcDbEntity
  8
OBJECT
100
AcDbLine
 10
28.0
 20
35.53589799999999
 30
0.0
 11
32.0
 21
35.53589799999999
 31
0.0
  0
LINE
  5
4A
330
24
100
AcDbEntity
  8
OBJECT
100
AcDbLine
 10
32.0
 20
29.53589799999999
 30
0.0
 11
30.0
 21
33.0
 31
0.0
  0
LINE
  5
4B
330
24
100
AcDbEntity
  8
OBJECT
100
AcDbLine
 10
28.0
 20
29.53589799999999
 30
0.0
 11
32.0
 21
29.53589799999999
 31
0.0
  0
LINE
  5
4C
330
24
100
AcDbEntity
  8
OBJECT
100
AcDbLine
 10
28.0
 20
29.53589799999999
 30
0.0
 11
30.0
 21
33.0
 31
0.0
  0
LINE
  5
4D
330
24
100
AcDbEntity
  8
OBJECT
100
AcDbLine
 10
39.5
 20
19.0
 30
0.0
 11
40.49999999999999
 21
19.0
 31
0.0
  0
LINE
  5
4E
330
24
100
AcDbEntity
  8
OBJECT
100
AcDbLine
 10
44.5
 20
19.0
 30
0.0
 11
45.49999999999999
 21
19.0
 31
0.0
  0
LINE
  5
4F
330
24
100
AcDbEntity
  8
OBJECT
100
AcDbLine
 10
39.5
 20
25.0
 30
0.0
 11
40.49999999999999
 21
25.0
 31
0.0
  0
LINE
  5
50
330
24
100
AcDbEntity
  8
OBJECT
100
AcDbLine
 10
44.5
 20
25.0
 30
0.0
 11
45.49999999999999
 21
25.0
 31
0.0
  0
LINE
  5
51
330
24
100
AcDbEntity
  8
OBJECT
100
AcDbLine
 10
39.5
 20
31.0
 30
0.0
 11
40.49999999999999
 21
31.0
 31
0.0
  0
LINE
  5
52
330
24
100
AcDbEntity
  8
OBJECT
100
AcDbLine
 10
39.5
 20
37.0
 30
0.0
 11
40.49999999999999
 21
37.0
 31
0.0
  0
LINE
  5
53
330
24
100
AcDbEntity
  8
OBJECT
100
AcDbLine
 10
44.5
 20
31.0
 30
0.0
 11
45.49999999999999
 21
31.0
 31
0.0
  0
LINE
  5
54
330
24
100
AcDbEntity
  8
OBJECT
100
AcDbLine
 10
44.5
 20
37.0
 30
0.0
 11
45.49999999999999
 21
37.0
 31
0.0
  0
LINE
  5
55
330
24
100
AcDbEntity
  8
OBJECT
100
AcDbLine
 10
120.0
 20
10.0
 30
0.0
 11
120.0
 21
40.0
 31
0.0
  0
LINE
  5
56
330
24
100
AcDbEntity
  8
OBJECT
100
AcDbLine
 10
130.0
 20
40.0
 30
0.0
 11
130.0
 21
10.0
 31
0.0
  0
LINE
  5
57
330
24
100
AcDbEntity
  8
0
100
AcDbLine
 10
156.0
 20
10.0
 30
0.0
 11
156.0
 21
0.0
 31
0.0
  0
LINE
  5
58
330
24
100
AcDbEntity
  8
0
100
AcDbLine
 10
156.0
 20
200.0
 30
0.0
 11
156.0
 21
210.0
 31
0.0
  0
LINE
  5
59
330
24
100
AcDbEntity
  8
0
100
AcDbLine
 10
287.0
 20
105.0
 30
0.0
 11
297.0
 21
105.0
 31
0.0
  0
LINE
  5
5A
330
24
100
AcDbEntity
  8
0
100
AcDbLine
 10
25.0
 20
105.0
 30
0.0
 11
0.0
 21
105.0
 31
0.0
  0
TEXT
  5
5B
330
24
100
AcDbEntity
  8
0
100
AcDbText
 10
1.0
 20
1.0
 30
0.0
 40
3.0
  1
この図枠はサンプルです。社内の規格やプロッタの出力範囲に合わせて適当に変更してご利用ください。
  7
ADESK1
100
AcDbText
  0
LINE
  5
5C
330
24
100
AcDbEntity
  8
0
100
AcDbLine
 10
25.0
 20
152.5
 30
0.0
 11
20.0
 21
152.5
 31
0.0
  0
LINE
  5
5D
330
24
100
AcDbEntity
  8
0
100
AcDbLine
 10
25.0
 20
105.0
 30
0.0
 11
20.0
 21
105.0
 31
0.0
  0
LINE
  5
5E
330
24
100
AcDbEntity
  8
0
100
AcDbLine
 10
25.0
 20
57.5
 30
0.0
 11
20.0
 21
57.5
 31
0.0
  0
LINE
  5
5F
330
24
100
AcDbEntity
  8
0
100
AcDbLine
 10
68.66666666666668
 20
10.0
 30
0.0
 11
68.66666666666668
 21
5.0
 31
0.0
  0
LINE
  5
60
330
24
100
AcDbEntity
  8
0
100
AcDbLine
 10
112.3333333333333
 20
10.0
 30
0.0
 11
112.3333333333333
 21
5.0
 31
0.0
  0
LINE
  5
61
330
24
100
AcDbEntity
  8
0
100
AcDbLine
 10
156.0
 20
10.0
 30
0.0
 11
156.0
 21
5.0
 31
0.0
  0
LINE
  5
62
330
24
100
AcDbEntity
  8
0
100
AcDbLine
 10
199.6666666666666
 20
10.0
 30
0.0
 11
199.6666666666666
 21
5.0
 31
0.0
  0
LINE
  5
63
330
24
100
AcDbEntity
  8
0
100
AcDbLine
 10
243.3333333333333
 20
10.0
 30
0.0
 11
243.3333333333333
 21
5.0
 31
0.0
  0
LINE
  5
64
330
24
100
AcDbEntity
  8
0
100
AcDbLine
 10
287.0
 20
57.5
 30
0.0
 11
292.0
 21
57.5
 31
0.0
  0
LINE
  5
65
330
24
100
AcDbEntity
  8
0
100
AcDbLine
 10
287.0
 20
105.0
 30
0.0
 11
292.0
 21
105.0
 31
0.0
  0
LINE
  5
66
330
24
100
AcDbEntity
  8
0
100
AcDbLine
 10
287.0
 20
152.5
 30
0.0
 11
292.0
 21
152.5
 31
0.0
  0
LINE
  5
67
330
24
100
AcDbEntity
  8
0
100
AcDbLine
 10
243.3333333333333
 20
200.0
 30
0.0
 11
243.3333333333333
 21
205.0
 31
0.0
  0
LINE
  5
68
330
24
100
AcDbEntity
  8
0
100
AcDbLine
 10
199.6666666666666
 20
200.0
 30
0.0
 11
199.6666666666666
 21
205.0
 31
0.0
  0
LINE
  5
69
330
24
100
AcDbEntity
  8
0
100
AcDbLine
 10
156.0
 20
200.0
 30
0.0
 11
156.0
 21
205.0
 31
0.0
  0
LINE
  5
6A
330
24
100
AcDbEntity
  8
0
100
AcDbLine
 10
112.3333333333333
 20
200.0
 30
0.0
 11
112.3333333333333
 21
205.0
 31
0.0
  0
LINE
  5
6B
330
24
100
AcDbEntity
  8
0
100
AcDbLine
 10
68.66666666666666
 20
200.0
 30
0.0
 11
68.66666666666666
 21
205.0
 31
0.0
  0
TEXT
  5
6C
330
24
100
AcDbEntity
  8
0
100
AcDbText
 10
45.61904761904761
 20
201.0
 30
0.0
 40
3.0
  1
1
  7
ADESK1
 72
     1
 11
46.83333333333332
 21
201.0
 31
0.0
100
AcDbText
  0
TEXT
  5
6D
330
24
100
AcDbEntity
  8
0
100
AcDbText
 10
21.66139736003921
 20
176.25
 30
0.0
 40
3.0
  1
A
  7
ADESK1
 72
     1
 11
22.94711164575349
 21
176.25
 31
0.0
100
AcDbText
  0
TEXT
  5
6E
330
24
100
AcDbEntity
  8
0
100
AcDbText
 10
89.07142857142856
 20
201.0
 30
0.0
 40
3.0
  1
2
  7
ADESK1
 72
     1
 11
90.5
 21
201.0
 31
0.0
100
AcDbText
  0
TEXT
  5
6F
330
24
100
AcDbEntity
  8
0
100
AcDbText
 10
132.7380952380952
 20
201.0
 30
0.0
 40
3.0
  1
3
  7
ADESK1
 72
     1
 11
134.1666666666666
 21
201.0
 31
0.0
100
AcDbText
  0
TEXT
  5
70
330
24
100
AcDbEntity
  8
0
100
AcDbText
 10
176.3333333333333
 20
201.0
 30
0.0
 40
3.0
  1
4
  7
ADESK1
 72
     1
 11
177.8333333333333
 21
201.0
 31
0.0
100
AcDbText
  0
TEXT
  5
71
330
24
100
AcDbEntity
  8
0
100
AcDbText
 10
220.0714285714286
 20
201.0
 30
0.0
 40
3.0
  1
5
  7
ADESK1
 72
     1
 11
221.4999999999999
 21
201.0
 31
0.0
100
AcDbText
  0
TEXT
  5
72
330
24
100
AcDbEntity
  8
0
100
AcDbText
 10
263.6666666666666
 20
201.0
 30
0.0
 40
3.0
  1
6
  7
ADESK1
 72
     1
 11
265.1666666666666
 21
201.0
 31
0.0
100
AcDbText
  0
TEXT
  5
73
330
24
100
AcDbEntity
  8
0
100
AcDbText
 10
21.37568307432492
 20
128.75
 30
0.0
 40
3.0
  1
B
  7
ADESK1
 72
     1
 11
22.94711164575349
 21
128.75
 31
0.0
100
AcDbText
  0
TEXT
  5
74
330
24
100
AcDbEntity
  8
0
100
AcDbText
 10
21.44711164575349
 20
81.25
 30
0.0
 40
3.0
  1
C
  7
ADESK1
 72
     1
 11
22.94711164575349
 21
81.25
 31
0.0
100
AcDbText
  0
TEXT
  5
75
330
24
100
AcDbEntity
  8
0
100
AcDbText
 10
21.37568307432492
 20
33.75
 30
0.0
 40
3.0
  1
D
  7
ADESK1
 72
     1
 11
22.94711164575349
 21
33.75
 31
0.0
100
AcDbText
  0
TEXT
  5
76
330
24
100
AcDbEntity
  8
0
100
AcDbText
 10
45.61904761904759
 20
6.230338100985607
 30
0.0
 40
3.0
  1
1
  7
ADESK1
 72
     1
 11
46.83333333333331
 21
6.230338100985607
 31
0.0
100
AcDbText
  0
TEXT
  5
77
330
24
100
AcDbEntity
  8
0
100
AcDbText
 10
89.07142857142856
 20
6.230338100985607
 30
0.0
 40
3.0
  1
2
  7
ADESK1
 72
     1
 11
90.5
 21
6.230338100985607
 31
0.0
100
AcDbText
  0
TEXT
  5
78
330
24
100
AcDbEntity
  8
0
100
AcDbText
 10
132.7380952380952
 20
6.230338100985607
 30
0.0
 40
3.0
  1
3
  7
ADESK1
 72
     1
 11
134.1666666666666
 21
6.230338100985607
 31
0.0
100
AcDbText
  0
TEXT
  5
79
330
24
100
AcDbEntity
  8
0
100
AcDbText
 10
176.3333333333333
 20
6.230338100985607
 30
0.0
 40
3.0
  1
4
  7
ADESK1
 72
     1
 11
177.8333333333333
 21
6.230338100985607
 31
0.0
100
AcDbText
  0
TEXT
  5
7A
330
24
100
AcDbEntity
  8
0
100
AcDbText
 10
220.0714285714286
 20
6.230338100985607
 30
0.0
 40
3.0
  1
5
  7
ADESK1
 72
     1
 11
221.4999999999999
 21
6.230338100985607
 31
0.0
100
AcDbText
  0
TEXT
  5
7B
330
24
100
AcDbEntity
  8
0
100
AcDbText
 10
263.6666666666666
 20
6.230338100985607
 30
0.0
 40
3.0
  1
6
  7
ADESK1
 72
     1
 11
265.1666666666666
 21
6.230338100985607
 31
0.0
100
AcDbText
  0
TEXT
  5
7C
330
24
100
AcDbEntity
  8
0
100
AcDbText
 10
287.9530581679809
 20
176.25
 30
0.0
 40
3.0
  1
A
  7
ADESK1
 72
     1
 11
289.2387724536952
 21
176.25
 31
0.0
100
AcDbText
  0
TEXT
  5
7D
330
24
100
AcDbEntity
  8
0
100
AcDbText
 10
287.6673438822666
 20
128.75
 30
0.0
 40
3.0
  1
B
  7
ADESK1
 72
     1
 11
289.2387724536952
 21
128.75
 31
0.0
100
AcDbText
  0
TEXT
  5
7E
330
24
100
AcDbEntity
  8
0
100
AcDbText
 10
287.7387724536952
 20
81.25
 30
0.0
 40
3.0
  1
C
  7
ADESK1
 72
     1
 11
289.2387724536952
 21
81.25
 31
0.0
100
AcDbText
  0
TEXT
  5
7F
330
24
100
AcDbEntity
  8
0
100
AcDbText
 10
287.6673438822666
 20
33.75
 30
0.0
 40
3.0
  1
D
  7
ADESK1
 72
     1
 11
289.2387724536952
 21
33.75
 31
0.0
100
AcDbText
  0
LINE
  5
80
330
24
100
AcDbEntity
  8
0
 62
     0
100
AcDbLine
 10
157.2978723404242
 20
49.00000000000036
 30
0.0
 11
287.0
 21
49.00000000000036
 31
0.0
  0
LINE
  5
81
330
24
100
AcDbEntity
  8
0
 62
     0
100
AcDbLine
 10
157.2978723404242
 20
13.00000000000004
 30
0.0
 11
287.0
 21
13.00000000000004
 31
0.0
  0
LINE
  5
82
330
24
100
AcDbEntity
  8
0
 62
     0
100
AcDbLine
 10
157.2978723404242
 20
37.00000000000024
 30
0.0
 11
287.0
 21
37.00000000000024
 31
0.0
  0
LINE
  5
83
330
24
100
AcDbEntity
  8
0
 62
     0
100
AcDbLine
 10
195.1276595744673
 20
22.00000000000012
 30
0.0
 11
287.0
 21
22.00000000000012
 31
0.0
  0
LINE
  5
84
330
24
100
AcDbEntity
  8
0
 62
     0
100
AcDbLine
 10
157.2978723404242
 20
10.0
 30
0.0
 11
287.0
 21
10.0
 31
0.0
  0
LINE
  5
85
330
24
100
AcDbEntity
  8
0
 62
     0
100
AcDbLine
 10
287.0
 20
49.00000000000036
 30
0.0
 11
157.2978723404242
 21
49.00000000000036
 31
0.0
  0
LINE
  5
86
330
24
100
AcDbEntity
  8
0
 62
     0
100
AcDbLine
 10
180.7163120567365
 20
37.00000000000024
 30
0.0
 11
180.7163120567365
 21
10.0
 31
0.0
  0
LINE
  5
87
330
24
100
AcDbEntity
  8
0
 62
     0
100
AcDbLine
 10
162.702127659573
 20
37.00000000000024
 30
0.0
 11
162.702127659573
 21
10.0
 31
0.0
  0
LINE
  5
88
330
24
100
AcDbEntity
  8
0
 62
     0
100
AcDbLine
 10
189.7234042553184
 20
37.00000000000024
 30
0.0
 11
189.7234042553184
 21
10.0
 31
0.0
  0
LINE
  5
89
330
24
100
AcDbEntity
  8
0
 62
     0
100
AcDbLine
 10
195.1276595744673
 20
25.00000000000012
 30
0.0
 11
195.1276595744673
 21
10.0
 31
0.0
  0
LINE
  5
8A
330
24
100
AcDbEntity
  8
0
 62
     0
100
AcDbLine
 10
157.2978723404242
 20
49.00000000000036
 30
0.0
 11
157.2978723404242
 21
10.0
 31
0.0
  0
LINE
  5
8B
330
24
100
AcDbEntity
  8
0
 62
     0
100
AcDbLine
 10
225.7517730496447
 20
49.00000000000036
 30
0.0
 11
225.7517730496447
 21
10.0
 31
0.0
  0
LINE
  5
8C
330
24
100
AcDbEntity
  8
0
 62
     0
100
AcDbLine
 10
205.7659574468077
 20
22.00000000000007
 30
0.0
 11
205.7659574468077
 21
10.0
 31
0.0
  0
LINE
  5
8D
330
24
100
AcDbEntity
  8
0
 62
     0
100
AcDbLine
 10
216.4042553191484
 20
22.00000000000007
 30
0.0
 11
216.4042553191484
 21
10.0
 31
0.0
  0
LINE
  5
8E
330
24
100
AcDbEntity
  8
0
 62
     0
100
AcDbLine
 10
157.2978723404242
 20
16.00000000000008
 30
0.0
 11
195.1276595744673
 21
16.00000000000008
 31
0.0
  0
LINE
  5
8F
330
24
100
AcDbEntity
  8
0
 62
     0
100
AcDbLine
 10
157.2978723404242
 20
10.0
 30
0.0
 11
157.2978723404242
 21
13.00000000000004
 31
0.0
  0
TEXT
  5
90
330
24
100
AcDbEntity
  8
0
 62
     0
100
AcDbText
 10
198.7174935280942
 20
10.48329012996929
 30
0.0
 40
1.791674070777747
  1
製図
  7
ADESK1
 72
     1
 11
200.5688900678978
 21
10.48329012996929
 31
0.0
100
AcDbText
  0
TEXT
  5
91
330
24
100
AcDbEntity
  8
0
 62
     0
100
AcDbText
 10
209.2960689314087
 20
10.48329012996929
 30
0.0
 40
1.791674070777747
  1
設計
  7
ADESK1
 72
     1
 11
211.2071879402383
 21
10.48329012996929
 31
0.0
100
AcDbText
  0
TEXT
  5
92
330
24
100
AcDbEntity
  8
0
 62
     0
100
AcDbText
 10
219.2447163844405
 20
10.55220101068186
 30
0.0
 40
1.791674070777747
  1
照査
  7
ADESK1
 72
     1
 11
221.1558353932701
 21
10.55220101068186
 31
0.0
100
AcDbText
  0
LINE
  5
93
330
24
100
AcDbEntity
  8
0
 62
     0
100
AcDbLine
 10
157.2978723404242
 20
25.00000000000012
 30
0.0
 11
195.1276595744673
 21
25.00000000000012
 31
0.0
  0
LINE
  5
94
330
24
100
AcDbEntity
  8
0
 62
     0
100
AcDbLine
 10
157.2978723404242
 20
22.00000000000007
 30
0.0
 11
195.1276595744673
 21
22.00000000000012
 31
0.0
  0
LINE
  5
95
330
24
100
AcDbEntity
  8
0
 62
     0
100
AcDbLine
 10
157.2978723404242
 20
19.00000000000007
 30
0.0
 11
195.1276595744673
 21
19.00000000000012
 31
0.0
  0
LINE
  5
96
330
24
100
AcDbEntity
  8
0
 62
     0
100
AcDbLine
 10
157.2978723404242
 20
34.00000000000024
 30
0.0
 11
225.7517730496447
 21
34.00000000000024
 31
0.0
  0
LINE
  5
97
330
24
100
AcDbEntity
  8
0
 62
     0
100
AcDbLine
 10
157.2978723404242
 20
31.0000000000002
 30
0.0
 11
225.7517730496447
 21
31.0000000000002
 31
0.0
  0
LINE
  5
98
330
24
100
AcDbEntity
  8
0
 62
     0
100
AcDbLine
 10
157.2978723404242
 20
28.00000000000015
 30
0.0
 11
225.7517730496447
 21
28.00000000000015
 31
0.0
  0
LINE
  5
99
330
24
100
AcDbEntity
  8
0
 62
     0
100
AcDbLine
 10
195.1276595744673
 20
25.00000000000012
 30
0.0
 11
225.7517730496447
 21
25.00000000000012
 31
0.0
  0
LINE
  5
9A
330
24
100
AcDbEntity
  8
0
 62
     0
100
AcDbLine
 10
195.1276595744673
 20
49.00000000000036
 30
0.0
 11
195.1276595744673
 21
25.00000000000012
 31
0.0
  0
LINE
  5
9B
330
24
100
AcDbEntity
  8
0
 62
     0
100
AcDbLine
 10
202.3333333333325
 20
37.00000000000024
 30
0.0
 11
202.3333333333325
 21
25.00000000000012
 31
0.0
  0
LINE
  5
9C
330
24
100
AcDbEntity
  8
0
 62
     0
100
AcDbLine
 10
213.1418439716305
 20
49.00000000000036
 30
0.0
 11
213.1418439716305
 21
22.00000000000012
 31
0.0
  0
LINE
  5
9D
330
24
100
AcDbEntity
  8
0
 62
     0
100
AcDbLine
 10
279.7943262411347
 20
22.00000000000012
 30
0.0
 11
279.7943262411347
 21
10.0
 31
0.0
  0
LINE
  5
9E
330
24
100
AcDbEntity
  8
0
 62
     0
100
AcDbLine
 10
287.0
 20
49.00000000000036
 30
0.0
 11
287.0
 21
10.0
 31
0.0
  0
LINE
  5
9F
330
24
100
AcDbEntity
  8
0
 62
     0
100
AcDbLine
 10
287.0
 20
10.0
 30
0.0
 11
287.0
 21
49.00000000000036
 31
0.0
  0
LINE
  5
A0
330
24
100
AcDbEntity
  8
0
 62
     0
100
AcDbLine
 10
279.7943262411347
 20
16.00000000000008
 30
0.0
 11
287.0
 21
16.00000000000008
 31
0.0
  0
ENDBLK
  5
A2
330
24
100
AcDbEntity
  8
0
100
AcDbBlockEnd
  0
ENDSEC
  0
SECTION
  2
ENTITIES
  0
MTEXT
  5
938
330
18
100
AcDbEntity
  8
上書線
100
AcDbMText
 10
1865.739761775792
 20
499.0283937835011
 30
0.0
 40
37.5
 41
0.0
 71
     4
 72
     1
  1
\A1;
 73
     1
 44
1.0
  0
LINE
  5
123E
330
18
100
AcDbEntity
  8
基準線
100
AcDbLine
 10
710.0813698183028
 20
2117.506972677286
 30
0.0
 11
731.0813698183028
 21
2117.506972677286
 31
0.0
  0
LINE
  5
14BB
330
18
100
AcDbEntity
  8
基準線
100
AcDbLine
 10
1281.296189060135
 20
2744.451732006984
 30
0.0
 11
1631.12377476475
 21
2744.451732006984
 31
0.0
  0
LINE
  5
14BC
330
18
100
AcDbEntity
  8
基準線
100
AcDbLine
 10
1131.296189060135
 20
2594.451732006984
 30
0.0
 11
1604.134047986604
 21
2594.451732006984
 31
0.0
  0
LINE
  5
1546
330
18
100
AcDbEntity
  8
基準線
100
AcDbLine
 10
2000.40772718317
 20
1104.126411816217
 30
0.0
 11
2000.40772718317
 21
1262.163674897728
 31
0.0
  0
LINE
  5
154B
330
18
100
AcDbEntity
  8
基準線
100
AcDbLine
 10
2550.40772718317
 20
1049.126411816217
 30
0.0
 11
2550.40772718317
 21
1211.614819254876
 31
0.0
  0
LINE
  5
154C
330
18
100
AcDbEntity
  8
基準線
100
AcDbLine
 10
2150.40772718317
 20
1049.126411816217
 30
0.0
 11
2150.40772718317
 21
1226.779475202555
 31
0.0
  0
LINE
  5
15CA
330
18
100
AcDbEntity
  8
基準線
100
AcDbLine
 10
3419.935833980378
 20
2804.85492986955
 30
0.0
 11
3776.432100616551
 21
2804.85492986955
 31
0.0
  0
LINE
  5
15CC
330
18
100
AcDbEntity
  8
基準線
100
AcDbLine
 10
3776.432100616551
 20
2804.85492986955
 30
0.0
 11
4171.357345948922
 21
2804.85492986955
 31
0.0
  0
LINE
  5
15D0
330
18
100
AcDbEntity
  8
基準線
100
AcDbLine
 10
3419.935833980378
 20
2684.85492986955
 30
0.0
 11
3776.432100616551
 21
2684.85492986955
 31
0.0
  0
LINE
  5
15D1
330
18
100
AcDbEntity
  8
基準線
100
AcDbLine
 10
3598.183967298465
 20
2684.85492986955
 30
0.0
 11
3598.183967298465
 21
984.8549298695507
 31
0.0
  0
LINE
  5
15D2
330
18
100
AcDbEntity
  8
基準線
100
AcDbLine
 10
3776.432100616551
 20
2484.854929869551
 30
0.0
 11
4171.357345948921
 21
2484.85492986955
 31
0.0
  0
LINE
  5
15D3
330
18
100
AcDbEntity
  8
基準線
100
AcDbLine
 10
3973.894723282737
 20
2684.854929869551
 30
0.0
 11
3973.894723282734
 21
984.8549298695507
 31
0.0
  0
LINE
  5
15D4
330
18
100
AcDbEntity
  8
基準線
100
AcDbLine
 10
3419.935833980378
 20
2684.85492986955
 30
0.0
 11
3419.935833980378
 21
2584.85492986955
 31
0.0
  0
LINE
  5
15D5
330
18
100
AcDbEntity
  8
基準線
100
AcDbLine
 10
3419.935833980378
 20
2634.85492986955
 30
0.0
 11
4114.659436953616
 21
2634.85492986955
 31
0.0
  0
LINE
  5
1A8A
330
18
100
AcDbEntity
  8
OBJECT
100
AcDbLine
 10
5586.688407240831
 20
5659.079947033063
 30
0.0
 11
5586.688407240831
 21
5774.879947033065
 31
0.0
  0
LINE
  5
1A8B
330
18
100
AcDbEntity
  8
OBJECT
100
AcDbLine
 10
5584.188407240832
 20
5659.079947033063
 30
0.0
 11
5584.188407240832
 21
5774.879947033065
 31
0.0
  0
LINE
  5
1A8C
330
18
100
AcDbEntity
  8
OBJECT
100
AcDbLine
 10
5602.938427873015
 20
5659.079955484465
 30
0.0
 11
5602.938427873015
 21
5774.879955484465
 31
0.0
  0
LINE
  5
1A8D
330
18
100
AcDbEntity
  8
OBJECT
100
AcDbLine
 10
5605.438427873014
 20
5659.079955484465
 30
0.0
 11
5605.438427873014
 21
5774.879955484465
 31
0.0
  0
LINE
  5
1A8E
330
18
100
AcDbEntity
  8
OBJECT
100
AcDbLine
 10
5642.93846913738
 20
5659.079963935863
 30
0.0
 11
5642.93846913738
 21
5774.879963935864
 31
0.0
  0
LINE
  5
1A8F
330
18
100
AcDbEntity
  8
OBJECT
100
AcDbLine
 10
5640.438469137381
 20
5659.079963935863
 30
0.0
 11
5640.438469137381
 21
5774.879963935864
 31
0.0
  0
LINE
  5
1A90
330
18
100
AcDbEntity
  8
OBJECT
100
AcDbLine
 10
5621.688448505198
 20
5659.079955484465
 30
0.0
 11
5621.688448505198
 21
5774.879955484465
 31
0.0
  0
LINE
  5
1A91
330
18
100
AcDbEntity
  8
OBJECT
100
AcDbLine
 10
5624.188448505197
 20
5659.079955484465
 30
0.0
 11
5624.188448505197
 21
5774.879955484465
 31
0.0
  0
LINE
  5
1A92
330
18
100
AcDbEntity
  8
OBJECT
100
AcDbLine
 10
5659.188489769563
 20
5659.079944860438
 30
0.0
 11
5659.188489769563
 21
5774.879944860439
 31
0.0
  0
LINE
  5
1A93
330
18
100
AcDbEntity
  8
OBJECT
100
AcDbLine
 10
5661.688489769563
 20
5659.079944860438
 30
0.0
 11
5661.688489769563
 21
5774.879944860439
 31
0.0
  0
LINE
  5
1A94
330
18
100
AcDbEntity
  8
OBJECT
100
AcDbLine
 10
5511.6883247121
 20
5659.079955484465
 30
0.0
 11
5511.6883247121
 21
5774.879955484465
 31
0.0
  0
LINE
  5
1A95
330
18
100
AcDbEntity
  8
OBJECT
100
AcDbLine
 10
5509.1883247121
 20
5659.079955484465
 30
0.0
 11
5509.1883247121
 21
5774.879955484465
 31
0.0
  0
LINE
  5
1A96
330
18
100
AcDbEntity
  8
OBJECT
100
AcDbLine
 10
5527.938345344283
 20
5659.079963935863
 30
0.0
 11
5527.938345344283
 21
5774.879963935864
 31
0.0
  0
LINE
  5
1A97
330
18
100
AcDbEntity
  8
OBJECT
100
AcDbLine
 10
5530.438345344283
 20
5659.079963935863
 30
0.0
 11
5530.438345344283
 21
5774.879963935864
 31
0.0
  0
LINE
  5
1A98
330
18
100
AcDbEntity
  8
OBJECT
100
AcDbLine
 10
5567.938386608648
 20
5659.079972387264
 30
0.0
 11
5567.938386608648
 21
5774.879972387264
 31
0.0
  0
LINE
  5
1A99
330
18
100
AcDbEntity
  8
OBJECT
100
AcDbLine
 10
5565.438386608649
 20
5659.079972387264
 30
0.0
 11
5565.438386608649
 21
5774.879972387264
 31
0.0
  0
LINE
  5
1A9A
330
18
100
AcDbEntity
  8
OBJECT
100
AcDbLine
 10
5546.688365976466
 20
5659.079963935863
 30
0.0
 11
5546.688365976466
 21
5774.879963935864
 31
0.0
  0
LINE
  5
1A9B
330
18
100
AcDbEntity
  8
OBJECT
100
AcDbLine
 10
5549.188365976466
 20
5659.079963935863
 30
0.0
 11
5549.188365976466
 21
5774.879963935864
 31
0.0
  0
LINE
  5
1A9C
330
18
100
AcDbEntity
  8
OBJECT
100
AcDbLine
 10
5474.188283447734
 20
5659.079966108489
 30
0.0
 11
5474.188283447734
 21
5774.87996610849
 31
0.0
  0
LINE
  5
1A9D
330
18
100
AcDbEntity
  8
OBJECT
100
AcDbLine
 10
5471.688283447734
 20
5659.079966108489
 30
0.0
 11
5471.688283447734
 21
5774.87996610849
 31
0.0
  0
LINE
  5
1A9E
330
18
100
AcDbEntity
  8
OBJECT
100
AcDbLine
 10
5490.438304079917
 20
5659.07997455989
 30
0.0
 11
5490.438304079917
 21
5774.87997455989
 31
0.0
  0
LINE
  5
1A9F
330
18
100
AcDbEntity
  8
OBJECT
100
AcDbLine
 10
5492.938304079917
 20
5659.07997455989
 30
0.0
 11
5492.938304079917
 21
5774.87997455989
 31
0.0
  0
LINE
  5
1AA0
330
18
100
AcDbEntity
  8
OBJECT
100
AcDbLine
 10
5455.438262815551
 20
5659.079966108489
 30
0.0
 11
5455.438262815551
 21
5774.87996610849
 31
0.0
  0
LINE
  5
1AA1
330
18
100
AcDbEntity
  8
OBJECT
100
AcDbLine
 10
5452.938262815552
 20
5659.079966108489
 30
0.0
 11
5452.938262815552
 21
5774.87996610849
 31
0.0
  0
LINE
  5
1AA2
330
18
100
AcDbEntity
  8
OBJECT
100
AcDbLine
 10
5415.43823218797
 20
5659.079966108489
 30
0.0
 11
5415.43823218797
 21
5774.87996610849
 31
0.0
  0
LINE
  5
1AA3
330
18
100
AcDbEntity
  8
OBJECT
100
AcDbLine
 10
5434.188242183369
 20
5659.07995765709
 30
0.0
 11
5434.188242183369
 21
5774.879957657091
 31
0.0
  0
LINE
  5
1AA4
330
18
100
AcDbEntity
  8
OBJECT
100
AcDbLine
 10
5436.688242183368
 20
5659.07995765709
 30
0.0
 11
5436.688242183368
 21
5774.879957657091
 31
0.0
  0
LINE
  5
1AA5
330
18
100
AcDbEntity
  8
OBJECT
100
AcDbLine
 10
5417.938232187969
 20
5659.079966108489
 30
0.0
 11
5417.938232187969
 21
5774.87996610849
 31
0.0
  0
LINE
  5
1AA6
330
18
100
AcDbEntity
  8
OBJECT
100
AcDbLine
 10
6317.939208363707
 20
5715.6562208079
 30
0.0
 11
6317.939208363707
 21
5774.879953311838
 31
0.0
  0
LINE
  5
1AA7
330
18
100
AcDbEntity
  8
OBJECT
100
AcDbLine
 10
6315.439208363708
 20
5713.156220807899
 30
0.0
 11
6315.439208363708
 21
5774.879953311838
 31
0.0
  0
LINE
  5
1AA8
330
18
100
AcDbEntity
  8
OBJECT
100
AcDbLine
 10
6334.162943668899
 20
5731.879956113091
 30
0.0
 11
6334.162943668899
 21
5774.87997455989
 31
0.0
  0
LINE
  5
1AA9
330
18
100
AcDbEntity
  8
OBJECT
100
AcDbLine
 10
6336.662943668899
 20
5734.379956113091
 30
0.0
 11
6336.662943668899
 21
5774.87997455989
 31
0.0
  0
LINE
  5
1AAA
330
18
100
AcDbEntity
  8
OBJECT
100
AcDbLine
 10
6352.912953664299
 20
5750.62996610849
 30
0.0
 11
6352.912953664299
 21
5774.87996610849
 31
0.0
  0
LINE
  5
1AAB
330
18
100
AcDbEntity
  8
OBJECT
100
AcDbLine
 10
6355.412953664298
 20
5753.129966108491
 30
0.0
 11
6355.412953664298
 21
5774.87996610849
 31
0.0
  0
LINE
  5
1AAC
330
18
100
AcDbEntity
  8
OBJECT
100
AcDbLine
 10
6074.188940145329
 20
5659.079953311838
 30
0.0
 11
6074.188940145329
 21
5774.879953311838
 31
0.0
  0
LINE
  5
1AAD
330
18
100
AcDbEntity
  8
OBJECT
100
AcDbLine
 10
6071.68894014533
 20
5659.079953311838
 30
0.0
 11
6071.68894014533
 21
5774.879953311838
 31
0.0
  0
LINE
  5
1AAE
330
18
100
AcDbEntity
  8
OBJECT
100
AcDbLine
 10
6090.438960777513
 20
5659.079961763239
 30
0.0
 11
6090.438960777513
 21
5774.879961763239
 31
0.0
  0
LINE
  5
1AAF
330
18
100
AcDbEntity
  8
OBJECT
100
AcDbLine
 10
6092.938960777512
 20
5659.079961763239
 30
0.0
 11
6092.938960777512
 21
5774.879961763239
 31
0.0
  0
LINE
  5
1AB0
330
18
100
AcDbEntity
  8
OBJECT
100
AcDbLine
 10
6130.439002041878
 20
5659.079970214637
 30
0.0
 11
6130.439002041878
 21
5774.879970214637
 31
0.0
  0
LINE
  5
1AB1
330
18
100
AcDbEntity
  8
OBJECT
100
AcDbLine
 10
6127.939002041879
 20
5659.079970214637
 30
0.0
 11
6127.939002041879
 21
5774.879970214637
 31
0.0
  0
LINE
  5
1AB2
330
18
100
AcDbEntity
  8
OBJECT
100
AcDbLine
 10
6109.188981409696
 20
5659.079961763239
 30
0.0
 11
6109.188981409696
 21
5774.879961763239
 31
0.0
  0
LINE
  5
1AB3
330
18
100
AcDbEntity
  8
OBJECT
100
AcDbLine
 10
6111.688981409695
 20
5659.079961763239
 30
0.0
 11
6111.688981409695
 21
5774.879961763239
 31
0.0
  0
LINE
  5
1AB4
330
18
100
AcDbEntity
  8
OBJECT
100
AcDbLine
 10
6036.688898880964
 20
5659.079963935863
 30
0.0
 11
6036.688898880964
 21
5774.879963935864
 31
0.0
  0
LINE
  5
1AB5
330
18
100
AcDbEntity
  8
OBJECT
100
AcDbLine
 10
6034.188898880964
 20
5659.079963935863
 30
0.0
 11
6034.188898880964
 21
5774.879963935864
 31
0.0
  0
LINE
  5
1AB6
330
18
100
AcDbEntity
  8
OBJECT
100
AcDbLine
 10
6052.938919513147
 20
5659.079972387264
 30
0.0
 11
6052.938919513147
 21
5774.879972387264
 31
0.0
  0
LINE
  5
1AB7
330
18
100
AcDbEntity
  8
OBJECT
100
AcDbLine
 10
6055.438919513147
 20
5659.079972387264
 30
0.0
 11
6055.438919513147
 21
5774.879972387264
 31
0.0
  0
LINE
  5
1AB8
330
18
100
AcDbEntity
  8
OBJECT
100
AcDbLine
 10
6299.189187731524
 20
5696.906200175717
 30
0.0
 11
6299.189187731524
 21
5774.879944860439
 31
0.0
  0
LINE
  5
1AB9
330
18
100
AcDbEntity
  8
OBJECT
100
AcDbLine
 10
6296.689187731525
 20
5694.406200175716
 30
0.0
 11
6296.689187731525
 21
5774.879944860439
 31
0.0
  0
LINE
  5
1ABA
330
18
100
AcDbEntity
  8
OBJECT
100
AcDbLine
 10
6224.189105202793
 20
5659.079953311838
 30
0.0
 11
6224.189105202793
 21
5774.879953311838
 31
0.0
  0
LINE
  5
1ABB
330
18
100
AcDbEntity
  8
OBJECT
100
AcDbLine
 10
6221.689105202793
 20
5659.079953311838
 30
0.0
 11
6221.689105202793
 21
5774.879953311838
 31
0.0
  0
LINE
  5
1ABC
330
18
100
AcDbEntity
  8
OBJECT
100
AcDbLine
 10
6240.439125834976
 20
5659.079961763239
 30
0.0
 11
6240.439125834976
 21
5774.879961763239
 31
0.0
  0
LINE
  5
1ABD
330
18
100
AcDbEntity
  8
OBJECT
100
AcDbLine
 10
6242.939125834976
 20
5659.079961763239
 30
0.0
 11
6242.939125834976
 21
5774.879961763239
 31
0.0
  0
LINE
  5
1ABE
330
18
100
AcDbEntity
  8
OBJECT
100
AcDbLine
 10
6280.439167099341
 20
5678.156179543534
 30
0.0
 11
6280.439167099341
 21
5774.879970214637
 31
0.0
  0
LINE
  5
1ABF
330
18
100
AcDbEntity
  8
OBJECT
100
AcDbLine
 10
6277.939167099342
 20
5675.656179543533
 30
0.0
 11
6277.939167099342
 21
5774.879970214637
 31
0.0
  0
LINE
  5
1AC0
330
18
100
AcDbEntity
  8
OBJECT
100
AcDbLine
 10
6259.189146467159
 20
5659.079961763239
 30
0.0
 11
6259.189146467159
 21
5774.879961763239
 31
0.0
  0
LINE
  5
1AC1
330
18
100
AcDbEntity
  8
OBJECT
100
AcDbLine
 10
6261.689146467158
 20
5659.079961763239
 30
0.0
 11
6261.689146467158
 21
5774.879961763239
 31
0.0
  0
LINE
  5
1AC2
330
18
100
AcDbEntity
  8
OBJECT
100
AcDbLine
 10
6186.689063938427
 20
5659.079963935863
 30
0.0
 11
6186.689063938427
 21
5774.879963935864
 31
0.0
  0
LINE
  5
1AC3
330
18
100
AcDbEntity
  8
OBJECT
100
AcDbLine
 10
6184.189063938427
 20
5659.079963935863
 30
0.0
 11
6184.189063938427
 21
5774.879963935864
 31
0.0
  0
LINE
  5
1AC4
330
18
100
AcDbEntity
  8
OBJECT
100
AcDbLine
 10
6202.93908457061
 20
5659.079972387264
 30
0.0
 11
6202.93908457061
 21
5774.879972387264
 31
0.0
  0
LINE
  5
1AC5
330
18
100
AcDbEntity
  8
OBJECT
100
AcDbLine
 10
6205.43908457061
 20
5659.079972387264
 30
0.0
 11
6205.43908457061
 21
5774.879972387264
 31
0.0
  0
LINE
  5
1AC6
330
18
100
AcDbEntity
  8
OBJECT
100
AcDbLine
 10
6167.939043306244
 20
5659.079963935863
 30
0.0
 11
6167.939043306244
 21
5774.879963935864
 31
0.0
  0
LINE
  5
1AC7
330
18
100
AcDbEntity
  8
OBJECT
100
AcDbLine
 10
6165.439043306244
 20
5659.079963935863
 30
0.0
 11
6165.439043306244
 21
5774.879963935864
 31
0.0
  0
LINE
  5
1AC8
330
18
100
AcDbEntity
  8
OBJECT
100
AcDbLine
 10
6146.689022674062
 20
5659.079955484465
 30
0.0
 11
6146.689022674062
 21
5774.879955484465
 31
0.0
  0
LINE
  5
1AC9
330
18
100
AcDbEntity
  8
OBJECT
100
AcDbLine
 10
6149.189022674061
 20
5659.079955484465
 30
0.0
 11
6149.189022674061
 21
5774.879955484465
 31
0.0
  0
LINE
  5
1ACA
330
18
100
AcDbEntity
  8
OBJECT
100
AcDbLine
 10
5736.688572298294
 20
5659.079947033063
 30
0.0
 11
5736.688572298294
 21
5774.879947033065
 31
0.0
  0
LINE
  5
1ACB
330
18
100
AcDbEntity
  8
OBJECT
100
AcDbLine
 10
5734.188572298295
 20
5659.079947033063
 30
0.0
 11
5734.188572298295
 21
5774.879947033065
 31
0.0
  0
LINE
  5
1ACC
330
18
100
AcDbEntity
  8
OBJECT
100
AcDbLine
 10
5752.938592930478
 20
5659.079955484465
 30
0.0
 11
5752.938592930478
 21
5774.879955484465
 31
0.0
  0
LINE
  5
1ACD
330
18
100
AcDbEntity
  8
OBJECT
100
AcDbLine
 10
5755.438592930477
 20
5659.079955484465
 30
0.0
 11
5755.438592930477
 21
5774.879955484465
 31
0.0
  0
LINE
  5
1ACE
330
18
100
AcDbEntity
  8
OBJECT
100
AcDbLine
 10
5792.938634194843
 20
5659.079963935863
 30
0.0
 11
5792.938634194843
 21
5774.879963935864
 31
0.0
  0
LINE
  5
1ACF
330
18
100
AcDbEntity
  8
OBJECT
100
AcDbLine
 10
5790.438634194844
 20
5659.079963935863
 30
0.0
 11
5790.438634194844
 21
5774.879963935864
 31
0.0
  0
LINE
  5
1AD0
330
18
100
AcDbEntity
  8
OBJECT
100
AcDbLine
 10
5771.688613562661
 20
5659.079955484465
 30
0.0
 11
5771.688613562661
 21
5774.879955484465
 31
0.0
  0
LINE
  5
1AD1
330
18
100
AcDbEntity
  8
OBJECT
100
AcDbLine
 10
5774.18861356266
 20
5659.079955484465
 30
0.0
 11
5774.18861356266
 21
5774.879955484465
 31
0.0
  0
LINE
  5
1AD2
330
18
100
AcDbEntity
  8
OBJECT
100
AcDbLine
 10
5849.188696091392
 20
5659.079953311838
 30
0.0
 11
5849.188696091392
 21
5774.879953311838
 31
0.0
  0
LINE
  5
1AD3
330
18
100
AcDbEntity
  8
OBJECT
100
AcDbLine
 10
5846.688696091392
 20
5659.079953311838
 30
0.0
 11
5846.688696091392
 21
5774.879953311838
 31
0.0
  0
LINE
  5
1AD4
330
18
100
AcDbEntity
  8
OBJECT
100
AcDbLine
 10
5865.438716723575
 20
5659.079961763239
 30
0.0
 11
5865.438716723575
 21
5774.879961763239
 31
0.0
  0
LINE
  5
1AD5
330
18
100
AcDbEntity
  8
OBJECT
100
AcDbLine
 10
5867.938716723575
 20
5659.079961763239
 30
0.0
 11
5867.938716723575
 21
5774.879961763239
 31
0.0
  0
LINE
  5
1AD6
330
18
100
AcDbEntity
  8
OBJECT
100
AcDbLine
 10
5830.438675459209
 20
5659.079953311838
 30
0.0
 11
5830.438675459209
 21
5774.879953311838
 31
0.0
  0
LINE
  5
1AD7
330
18
100
AcDbEntity
  8
OBJECT
100
AcDbLine
 10
5827.938675459209
 20
5659.079953311838
 30
0.0
 11
5827.938675459209
 21
5774.879953311838
 31
0.0
  0
LINE
  5
1AD8
330
18
100
AcDbEntity
  8
OBJECT
100
AcDbLine
 10
5809.188654827027
 20
5659.079944860438
 30
0.0
 11
5809.188654827027
 21
5774.879944860439
 31
0.0
  0
LINE
  5
1AD9
330
18
100
AcDbEntity
  8
OBJECT
100
AcDbLine
 10
5811.688654827026
 20
5659.079944860438
 30
0.0
 11
5811.688654827026
 21
5774.879944860439
 31
0.0
  0
LINE
  5
1ADA
330
18
100
AcDbEntity
  8
OBJECT
100
AcDbLine
 10
5961.688819884489
 20
5659.079934236412
 30
0.0
 11
5961.688819884489
 21
5774.879934236412
 31
0.0
  0
LINE
  5
1ADB
330
18
100
AcDbEntity
  8
OBJECT
100
AcDbLine
 10
5959.18881988449
 20
5659.079934236412
 30
0.0
 11
5959.18881988449
 21
5774.879934236412
 31
0.0
  0
LINE
  5
1ADC
330
18
100
AcDbEntity
  8
OBJECT
100
AcDbLine
 10
5977.938840516673
 20
5659.079942687813
 30
0.0
 11
5977.938840516673
 21
5774.879942687813
 31
0.0
  0
LINE
  5
1ADD
330
18
100
AcDbEntity
  8
OBJECT
100
AcDbLine
 10
5980.438840516672
 20
5659.079942687813
 30
0.0
 11
5980.438840516672
 21
5774.879942687813
 31
0.0
  0
LINE
  5
1ADE
330
18
100
AcDbEntity
  8
OBJECT
100
AcDbLine
 10
6017.938881781038
 20
5659.079951139212
 30
0.0
 11
6017.938881781038
 21
5774.879951139213
 31
0.0
  0
LINE
  5
1ADF
330
18
100
AcDbEntity
  8
OBJECT
100
AcDbLine
 10
6015.438881781038
 20
5659.079951139212
 30
0.0
 11
6015.438881781038
 21
5774.879951139213
 31
0.0
  0
LINE
  5
1AE0
330
18
100
AcDbEntity
  8
OBJECT
100
AcDbLine
 10
5996.688861148856
 20
5659.079942687813
 30
0.0
 11
5996.688861148856
 21
5774.879942687813
 31
0.0
  0
LINE
  5
1AE1
330
18
100
AcDbEntity
  8
OBJECT
100
AcDbLine
 10
5999.188861148855
 20
5659.079942687813
 30
0.0
 11
5999.188861148855
 21
5774.879942687813
 31
0.0
  0
LINE
  5
1AE2
330
18
100
AcDbEntity
  8
OBJECT
100
AcDbLine
 10
5924.188778620123
 20
5659.079944860438
 30
0.0
 11
5924.188778620123
 21
5774.879944860439
 31
0.0
  0
LINE
  5
1AE3
330
18
100
AcDbEntity
  8
OBJECT
100
AcDbLine
 10
5921.688778620124
 20
5659.079944860438
 30
0.0
 11
5921.688778620124
 21
5774.879944860439
 31
0.0
  0
LINE
  5
1AE4
330
18
100
AcDbEntity
  8
OBJECT
100
AcDbLine
 10
5940.438799252307
 20
5659.079953311838
 30
0.0
 11
5940.438799252307
 21
5774.879953311838
 31
0.0
  0
LINE
  5
1AE5
330
18
100
AcDbEntity
  8
OBJECT
100
AcDbLine
 10
5942.938799252306
 20
5659.079953311838
 30
0.0
 11
5942.938799252306
 21
5774.879953311838
 31
0.0
  0
LINE
  5
1AE6
330
18
100
AcDbEntity
  8
OBJECT
100
AcDbLine
 10
5905.438757987941
 20
5659.079944860438
 30
0.0
 11
5905.438757987941
 21
5774.879944860439
 31
0.0
  0
LINE
  5
1AE7
330
18
100
AcDbEntity
  8
OBJECT
100
AcDbLine
 10
5902.938757987941
 20
5659.079944860438
 30
0.0
 11
5902.938757987941
 21
5774.879944860439
 31
0.0
  0
LINE
  5
1AE8
330
18
100
AcDbEntity
  8
OBJECT
100
AcDbLine
 10
5884.188737355758
 20
5659.079936409039
 30
0.0
 11
5884.188737355758
 21
5774.879936409039
 31
0.0
  0
LINE
  5
1AE9
330
18
100
AcDbEntity
  8
OBJECT
100
AcDbLine
 10
5886.688737355758
 20
5659.079936409039
 30
0.0
 11
5886.688737355758
 21
5774.879936409039
 31
0.0
  0
LINE
  5
1AEA
330
18
100
AcDbEntity
  8
OBJECT
100
AcDbLine
 10
5699.188531033929
 20
5659.079953311838
 30
0.0
 11
5699.188531033929
 21
5774.879953311838
 31
0.0
  0
LINE
  5
1AEB
330
18
100
AcDbEntity
  8
OBJECT
100
AcDbLine
 10
5696.688531033929
 20
5659.079953311838
 30
0.0
 11
5696.688531033929
 21
5774.879953311838
 31
0.0
  0
LINE
  5
1AEC
330
18
100
AcDbEntity
  8
OBJECT
100
AcDbLine
 10
5715.438551666112
 20
5659.079961763239
 30
0.0
 11
5715.438551666112
 21
5774.879961763239
 31
0.0
  0
LINE
  5
1AED
330
18
100
AcDbEntity
  8
OBJECT
100
AcDbLine
 10
5717.938551666112
 20
5659.079961763239
 30
0.0
 11
5717.938551666112
 21
5774.879961763239
 31
0.0
  0
LINE
  5
1AEE
330
18
100
AcDbEntity
  8
OBJECT
100
AcDbLine
 10
5680.438510401746
 20
5659.079953311838
 30
0.0
 11
5680.438510401746
 21
5774.879953311838
 31
0.0
  0
LINE
  5
1AEF
330
18
100
AcDbEntity
  8
OBJECT
100
AcDbLine
 10
5677.938510401746
 20
5659.079953311838
 30
0.0
 11
5677.938510401746
 21
5774.879953311838
 31
0.0
  0
LINE
  5
1AF0
330
18
100
AcDbEntity
  8
OBJECT
100
AcDbLine
 10
6383.162953664299
 20
5780.87996610849
 30
0.0
 11
5393.162953664298
 21
5780.87996610849
 31
0.0
  0
LINE
  5
1AF1
330
18
100
AcDbEntity
  8
OBJECT
100
AcDbLine
 10
6377.162953664299
 20
5774.87996610849
 30
0.0
 11
5399.162953664299
 21
5774.87996610849
 31
0.0
  0
LINE
  5
1AF2
330
18
100
AcDbEntity
  8
OBJECT
100
AcDbLine
 10
6255.362953664299
 20
5653.079966108491
 30
0.0
 11
5399.162953664299
 21
5653.079966108491
 31
0.0
  0
LINE
  5
1AF3
330
18
100
AcDbEntity
  8
OBJECT
100
AcDbLine
 10
6261.689146467158
 20
5659.406158911351
 30
0.0
 11
5399.162953664299
 21
5659.079966108492
 31
0.0
  0
LINE
  5
1AF5
330
18
100
AcDbEntity
  8
OBJECT
100
AcDbLine
 10
6139.5629536643
 20
5537.279966108492
 30
0.0
 11
5399.162953664299
 21
5537.279966108492
 31
0.0
  0
LINE
  5
1AF6
330
18
100
AcDbEntity
  8
OBJECT
100
AcDbLine
 10
6133.5629536643
 20
5531.279966108492
 30
0.0
 11
5399.162953664299
 21
5531.279966108492
 31
0.0
  0
LINE
  5
1AF7
330
18
100
AcDbEntity
  8
OBJECT
100
AcDbLine
 10
5417.938232187969
 20
5653.079966108492
 30
0.0
 11
5417.938232187969
 21
5537.279966108492
 31
0.0
  0
LINE
  5
1AF8
330
18
100
AcDbEntity
  8
OBJECT
100
AcDbLine
 10
5436.688242183368
 20
5653.079974559893
 30
0.0
 11
5436.688242183368
 21
5537.279974559891
 31
0.0
  0
LINE
  5
1AF9
330
18
100
AcDbEntity
  8
OBJECT
100
AcDbLine
 10
5434.188242183369
 20
5653.079974559893
 30
0.0
 11
5434.188242183369
 21
5537.279974559891
 31
0.0
  0
LINE
  5
1AFA
330
18
100
AcDbEntity
  8
OBJECT
100
AcDbLine
 10
5415.43823218797
 20
5653.079966108492
 30
0.0
 11
5415.43823218797
 21
5537.279966108492
 31
0.0
  0
LINE
  5
1AFB
330
18
100
AcDbEntity
  8
OBJECT
100
AcDbLine
 10
5452.938262815552
 20
5653.079966108492
 30
0.0
 11
5452.938262815552
 21
5537.279966108492
 31
0.0
  0
LINE
  5
1AFC
330
18
100
AcDbEntity
  8
OBJECT
100
AcDbLine
 10
5455.438262815551
 20
5653.079966108492
 30
0.0
 11
5455.438262815551
 21
5537.279966108492
 31
0.0
  0
LINE
  5
1AFD
330
18
100
AcDbEntity
  8
OBJECT
100
AcDbLine
 10
5492.938304079917
 20
5653.079957657093
 30
0.0
 11
5492.938304079917
 21
5537.279957657093
 31
0.0
  0
LINE
  5
1AFE
330
18
100
AcDbEntity
  8
OBJECT
100
AcDbLine
 10
5490.438304079917
 20
5653.079957657093
 30
0.0
 11
5490.438304079917
 21
5537.279957657093
 31
0.0
  0
LINE
  5
1AFF
330
18
100
AcDbEntity
  8
OBJECT
100
AcDbLine
 10
5471.688283447734
 20
5653.079966108492
 30
0.0
 11
5471.688283447734
 21
5537.279966108492
 31
0.0
  0
LINE
  5
1B00
330
18
100
AcDbEntity
  8
OBJECT
100
AcDbLine
 10
5474.188283447734
 20
5653.079966108492
 30
0.0
 11
5474.188283447734
 21
5537.279966108492
 31
0.0
  0
LINE
  5
1B01
330
18
100
AcDbEntity
  8
OBJECT
100
AcDbLine
 10
5549.188365976466
 20
5653.079968281119
 30
0.0
 11
5549.188365976466
 21
5537.279968281119
 31
0.0
  0
LINE
  5
1B02
330
18
100
AcDbEntity
  8
OBJECT
100
AcDbLine
 10
5546.688365976466
 20
5653.079968281119
 30
0.0
 11
5546.688365976466
 21
5537.279968281119
 31
0.0
  0
LINE
  5
1B03
330
18
100
AcDbEntity
  8
OBJECT
100
AcDbLine
 10
5565.438386608649
 20
5653.079959829719
 30
0.0
 11
5565.438386608649
 21
5537.279959829719
 31
0.0
  0
LINE
  5
1B04
330
18
100
AcDbEntity
  8
OBJECT
100
AcDbLine
 10
5567.938386608648
 20
5653.079959829719
 30
0.0
 11
5567.938386608648
 21
5537.279959829719
 31
0.0
  0
LINE
  5
1B05
330
18
100
AcDbEntity
  8
OBJECT
100
AcDbLine
 10
5530.438345344283
 20
5653.079968281119
 30
0.0
 11
5530.438345344283
 21
5537.279968281119
 31
0.0
  0
LINE
  5
1B06
330
18
100
AcDbEntity
  8
OBJECT
100
AcDbLine
 10
5527.938345344283
 20
5653.079968281119
 30
0.0
 11
5527.938345344283
 21
5537.279968281119
 31
0.0
  0
LINE
  5
1B07
330
18
100
AcDbEntity
  8
OBJECT
100
AcDbLine
 10
5509.1883247121
 20
5653.079976732517
 30
0.0
 11
5509.1883247121
 21
5537.279976732517
 31
0.0
  0
LINE
  5
1B08
330
18
100
AcDbEntity
  8
OBJECT
100
AcDbLine
 10
5511.6883247121
 20
5653.079976732517
 30
0.0
 11
5511.6883247121
 21
5537.279976732517
 31
0.0
  0
LINE
  5
1B09
330
18
100
AcDbEntity
  8
OBJECT
100
AcDbLine
 10
5677.938510401746
 20
5653.079978905144
 30
0.0
 11
5677.938510401746
 21
5537.279978905144
 31
0.0
  0
LINE
  5
1B0A
330
18
100
AcDbEntity
  8
OBJECT
100
AcDbLine
 10
5680.438510401746
 20
5653.079978905144
 30
0.0
 11
5680.438510401746
 21
5537.279978905144
 31
0.0
  0
LINE
  5
1B0B
330
18
100
AcDbEntity
  8
OBJECT
100
AcDbLine
 10
5717.938551666112
 20
5653.079970453744
 30
0.0
 11
5717.938551666112
 21
5537.279970453744
 31
0.0
  0
LINE
  5
1B0C
330
18
100
AcDbEntity
  8
OBJECT
100
AcDbLine
 10
5715.438551666112
 20
5653.079970453744
 30
0.0
 11
5715.438551666112
 21
5537.279970453744
 31
0.0
  0
LINE
  5
1B0D
330
18
100
AcDbEntity
  8
OBJECT
100
AcDbLine
 10
5696.688531033929
 20
5653.079978905144
 30
0.0
 11
5696.688531033929
 21
5537.279978905144
 31
0.0
  0
LINE
  5
1B0E
330
18
100
AcDbEntity
  8
OBJECT
100
AcDbLine
 10
5699.188531033929
 20
5653.079978905144
 30
0.0
 11
5699.188531033929
 21
5537.279978905144
 31
0.0
  0
LINE
  5
1B0F
330
18
100
AcDbEntity
  8
OBJECT
100
AcDbLine
 10
5752.938592930478
 20
5653.079976732517
 30
0.0
 11
5752.938592930478
 21
5537.279976732517
 31
0.0
  0
LINE
  5
1B10
330
18
100
AcDbEntity
  8
OBJECT
100
AcDbLine
 10
5734.188572298295
 20
5653.079985183918
 30
0.0
 11
5734.188572298295
 21
5537.279985183918
 31
0.0
  0
LINE
  5
1B11
330
18
100
AcDbEntity
  8
OBJECT
100
AcDbLine
 10
5736.688572298294
 20
5653.079985183918
 30
0.0
 11
5736.688572298294
 21
5537.279985183918
 31
0.0
  0
LINE
  5
1B12
330
18
100
AcDbEntity
  8
OBJECT
100
AcDbLine
 10
5661.688489769563
 20
5653.079987356544
 30
0.0
 11
5661.688489769563
 21
5537.279987356544
 31
0.0
  0
LINE
  5
1B13
330
18
100
AcDbEntity
  8
OBJECT
100
AcDbLine
 10
5659.188489769563
 20
5653.079987356544
 30
0.0
 11
5659.188489769563
 21
5537.279987356544
 31
0.0
  0
LINE
  5
1B14
330
18
100
AcDbEntity
  8
OBJECT
100
AcDbLine
 10
5624.188448505197
 20
5653.079976732517
 30
0.0
 11
5624.188448505197
 21
5537.279976732517
 31
0.0
  0
LINE
  5
1B15
330
18
100
AcDbEntity
  8
OBJECT
100
AcDbLine
 10
5621.688448505198
 20
5653.079976732517
 30
0.0
 11
5621.688448505198
 21
5537.279976732517
 31
0.0
  0
LINE
  5
1B16
330
18
100
AcDbEntity
  8
OBJECT
100
AcDbLine
 10
5640.438469137381
 20
5653.079968281119
 30
0.0
 11
5640.438469137381
 21
5537.279968281119
 31
0.0
  0
LINE
  5
1B17
330
18
100
AcDbEntity
  8
OBJECT
100
AcDbLine
 10
5642.93846913738
 20
5653.079968281119
 30
0.0
 11
5642.93846913738
 21
5537.279968281119
 31
0.0
  0
LINE
  5
1B18
330
18
100
AcDbEntity
  8
OBJECT
100
AcDbLine
 10
5605.438427873014
 20
5653.079976732517
 30
0.0
 11
5605.438427873014
 21
5537.279976732517
 31
0.0
  0
LINE
  5
1B19
330
18
100
AcDbEntity
  8
OBJECT
100
AcDbLine
 10
5602.938427873015
 20
5653.079976732517
 30
0.0
 11
5602.938427873015
 21
5537.279976732517
 31
0.0
  0
LINE
  5
1B1A
330
18
100
AcDbEntity
  8
OBJECT
100
AcDbLine
 10
5584.188407240832
 20
5653.079985183918
 30
0.0
 11
5584.188407240832
 21
5537.279985183918
 31
0.0
  0
LINE
  5
1B1B
330
18
100
AcDbEntity
  8
OBJECT
100
AcDbLine
 10
5586.688407240831
 20
5653.079985183918
 30
0.0
 11
5586.688407240831
 21
5537.279985183918
 31
0.0
  0
LINE
  5
1B1C
330
18
100
AcDbEntity
  8
OBJECT
100
AcDbLine
 10
5886.688737355758
 20
5653.079995807943
 30
0.0
 11
5886.688737355758
 21
5537.279995807943
 31
0.0
  0
LINE
  5
1B1D
330
18
100
AcDbEntity
  8
OBJECT
100
AcDbLine
 10
5884.188737355758
 20
5653.079995807943
 30
0.0
 11
5884.188737355758
 21
5537.279995807943
 31
0.0
  0
LINE
  5
1B1E
330
18
100
AcDbEntity
  8
OBJECT
100
AcDbLine
 10
5902.938757987941
 20
5653.079987356544
 30
0.0
 11
5902.938757987941
 21
5537.279987356544
 31
0.0
  0
LINE
  5
1B1F
330
18
100
AcDbEntity
  8
OBJECT
100
AcDbLine
 10
5905.438757987941
 20
5653.079987356544
 30
0.0
 11
5905.438757987941
 21
5537.279987356544
 31
0.0
  0
LINE
  5
1B20
330
18
100
AcDbEntity
  8
OBJECT
100
AcDbLine
 10
5921.688778620124
 20
5653.079987356544
 30
0.0
 11
5921.688778620124
 21
5537.279987356544
 31
0.0
  0
LINE
  5
1B21
330
18
100
AcDbEntity
  8
OBJECT
100
AcDbLine
 10
5924.188778620123
 20
5653.079987356544
 30
0.0
 11
5924.188778620123
 21
5537.279987356544
 31
0.0
  0
LINE
  5
1B22
330
18
100
AcDbEntity
  8
OBJECT
100
AcDbLine
 10
5811.688654827026
 20
5653.079987356544
 30
0.0
 11
5811.688654827026
 21
5537.279987356544
 31
0.0
  0
LINE
  5
1B23
330
18
100
AcDbEntity
  8
OBJECT
100
AcDbLine
 10
5809.188654827027
 20
5653.079987356544
 30
0.0
 11
5809.188654827027
 21
5537.279987356544
 31
0.0
  0
LINE
  5
1B24
330
18
100
AcDbEntity
  8
OBJECT
100
AcDbLine
 10
5827.938675459209
 20
5653.079978905144
 30
0.0
 11
5827.938675459209
 21
5537.279978905144
 31
0.0
  0
LINE
  5
1B25
330
18
100
AcDbEntity
  8
OBJECT
100
AcDbLine
 10
5830.438675459209
 20
5653.079978905144
 30
0.0
 11
5830.438675459209
 21
5537.279978905144
 31
0.0
  0
LINE
  5
1B26
330
18
100
AcDbEntity
  8
OBJECT
100
AcDbLine
 10
5867.938716723575
 20
5653.079970453744
 30
0.0
 11
5867.938716723575
 21
5537.279970453744
 31
0.0
  0
LINE
  5
1B27
330
18
100
AcDbEntity
  8
OBJECT
100
AcDbLine
 10
5865.438716723575
 20
5653.079970453744
 30
0.0
 11
5865.438716723575
 21
5537.279970453744
 31
0.0
  0
LINE
  5
1B28
330
18
100
AcDbEntity
  8
OBJECT
100
AcDbLine
 10
5846.688696091392
 20
5653.079978905144
 30
0.0
 11
5846.688696091392
 21
5537.279978905144
 31
0.0
  0
LINE
  5
1B29
330
18
100
AcDbEntity
  8
OBJECT
100
AcDbLine
 10
5849.188696091392
 20
5653.079978905144
 30
0.0
 11
5849.188696091392
 21
5537.279978905144
 31
0.0
  0
LINE
  5
1B2A
330
18
100
AcDbEntity
  8
OBJECT
100
AcDbLine
 10
5774.18861356266
 20
5653.079976732517
 30
0.0
 11
5774.18861356266
 21
5537.279976732517
 31
0.0
  0
LINE
  5
1B2B
330
18
100
AcDbEntity
  8
OBJECT
100
AcDbLine
 10
5771.688613562661
 20
5653.079976732517
 30
0.0
 11
5771.688613562661
 21
5537.279976732517
 31
0.0
  0
LINE
  5
1B2C
330
18
100
AcDbEntity
  8
OBJECT
100
AcDbLine
 10
5790.438634194844
 20
5653.079968281119
 30
0.0
 11
5790.438634194844
 21
5537.279968281119
 31
0.0
  0
LINE
  5
1B2D
330
18
100
AcDbEntity
  8
OBJECT
100
AcDbLine
 10
5792.938634194843
 20
5653.079968281119
 30
0.0
 11
5792.938634194843
 21
5537.279968281119
 31
0.0
  0
LINE
  5
1B2E
330
18
100
AcDbEntity
  8
OBJECT
100
AcDbLine
 10
5755.438592930477
 20
5653.079976732517
 30
0.0
 11
5755.438592930477
 21
5537.279976732517
 31
0.0
  0
LINE
  5
1B2F
330
18
100
AcDbEntity
  8
OBJECT
100
AcDbLine
 10
5942.938799252306
 20
5653.079978905144
 30
0.0
 11
5942.938799252306
 21
5537.279978905144
 31
0.0
  0
LINE
  5
1B30
330
18
100
AcDbEntity
  8
OBJECT
100
AcDbLine
 10
5940.438799252307
 20
5653.079978905144
 30
0.0
 11
5940.438799252307
 21
5537.279978905144
 31
0.0
  0
LINE
  5
1B31
330
18
100
AcDbEntity
  8
OBJECT
100
AcDbLine
 10
5999.188861148855
 20
5653.079989529169
 30
0.0
 11
5999.188861148855
 21
5537.279989529169
 31
0.0
  0
LINE
  5
1B32
330
18
100
AcDbEntity
  8
OBJECT
100
AcDbLine
 10
5996.688861148856
 20
5653.079989529169
 30
0.0
 11
5996.688861148856
 21
5537.279989529169
 31
0.0
  0
LINE
  5
1B33
330
18
100
AcDbEntity
  8
OBJECT
100
AcDbLine
 10
6015.438881781038
 20
5653.07998107777
 30
0.0
 11
6015.438881781038
 21
5537.279981077769
 31
0.0
  0
LINE
  5
1B34
330
18
100
AcDbEntity
  8
OBJECT
100
AcDbLine
 10
6017.938881781038
 20
5653.07998107777
 30
0.0
 11
6017.938881781038
 21
5537.279981077769
 31
0.0
  0
LINE
  5
1B35
330
18
100
AcDbEntity
  8
OBJECT
100
AcDbLine
 10
5980.438840516672
 20
5653.079989529169
 30
0.0
 11
5980.438840516672
 21
5537.279989529169
 31
0.0
  0
LINE
  5
1B36
330
18
100
AcDbEntity
  8
OBJECT
100
AcDbLine
 10
5977.938840516673
 20
5653.079989529169
 30
0.0
 11
5977.938840516673
 21
5537.279989529169
 31
0.0
  0
LINE
  5
1B37
330
18
100
AcDbEntity
  8
OBJECT
100
AcDbLine
 10
5959.18881988449
 20
5653.07999798057
 30
0.0
 11
5959.18881988449
 21
5537.27999798057
 31
0.0
  0
LINE
  5
1B38
330
18
100
AcDbEntity
  8
OBJECT
100
AcDbLine
 10
5961.688819884489
 20
5653.07999798057
 30
0.0
 11
5961.688819884489
 21
5537.27999798057
 31
0.0
  0
LINE
  5
1B39
330
18
100
AcDbEntity
  8
OBJECT
100
AcDbLine
 10
6055.438919513147
 20
5653.079959829719
 30
0.0
 11
6055.438919513147
 21
5537.279959829719
 31
0.0
  0
LINE
  5
1B3A
330
18
100
AcDbEntity
  8
OBJECT
100
AcDbLine
 10
6052.938919513147
 20
5653.079959829719
 30
0.0
 11
6052.938919513147
 21
5537.279959829719
 31
0.0
  0
LINE
  5
1B3B
330
18
100
AcDbEntity
  8
OBJECT
100
AcDbLine
 10
6034.188898880964
 20
5653.079968281119
 30
0.0
 11
6034.188898880964
 21
5537.279968281119
 31
0.0
  0
LINE
  5
1B3C
330
18
100
AcDbEntity
  8
OBJECT
100
AcDbLine
 10
6036.688898880964
 20
5653.079968281119
 30
0.0
 11
6036.688898880964
 21
5537.279968281119
 31
0.0
  0
LINE
  5
1B3D
330
18
100
AcDbEntity
  8
OBJECT
100
AcDbLine
 10
6092.938960777512
 20
5653.079970453744
 30
0.0
 11
6092.938960777512
 21
5537.279970453744
 31
0.0
  0
LINE
  5
1B3E
330
18
100
AcDbEntity
  8
OBJECT
100
AcDbLine
 10
6090.438960777513
 20
5653.079970453744
 30
0.0
 11
6090.438960777513
 21
5537.279970453744
 31
0.0
  0
LINE
  5
1B3F
330
18
100
AcDbEntity
  8
OBJECT
100
AcDbLine
 10
6071.68894014533
 20
5653.079978905144
 30
0.0
 11
6071.68894014533
 21
5537.279978905144
 31
0.0
  0
LINE
  5
1B40
330
18
100
AcDbEntity
  8
OBJECT
100
AcDbLine
 10
6074.188940145329
 20
5653.079978905144
 30
0.0
 11
6074.188940145329
 21
5537.279978905144
 31
0.0
  0
LINE
  5
1B41
330
18
100
AcDbEntity
  8
OBJECT
100
AcDbLine
 10
6149.189022674061
 20
5653.079976732517
 30
0.0
 11
6149.189022674061
 21
5546.906035118253
 31
0.0
  0
LINE
  5
1B42
330
18
100
AcDbEntity
  8
OBJECT
100
AcDbLine
 10
6146.689022674062
 20
5653.079976732517
 30
0.0
 11
6146.689022674062
 21
5544.406035118253
 31
0.0
  0
LINE
  5
1B43
330
18
100
AcDbEntity
  8
OBJECT
100
AcDbLine
 10
6165.439043306244
 20
5653.079968281119
 30
0.0
 11
6165.439043306244
 21
5563.156055750436
 31
0.0
  0
LINE
  5
1B44
330
18
100
AcDbEntity
  8
OBJECT
100
AcDbLine
 10
6167.939043306244
 20
5653.079968281119
 30
0.0
 11
6167.939043306244
 21
5565.656055750436
 31
0.0
  0
LINE
  5
1B45
330
18
100
AcDbEntity
  8
OBJECT
100
AcDbLine
 10
6205.43908457061
 20
5653.079959829719
 30
0.0
 11
6205.43908457061
 21
5603.156097014802
 31
0.0
  0
LINE
  5
1B46
330
18
100
AcDbEntity
  8
OBJECT
100
AcDbLine
 10
6202.93908457061
 20
5653.079959829719
 30
0.0
 11
6202.93908457061
 21
5600.656097014802
 31
0.0
  0
LINE
  5
1B47
330
18
100
AcDbEntity
  8
OBJECT
100
AcDbLine
 10
6184.189063938427
 20
5653.079968281119
 30
0.0
 11
6184.189063938427
 21
5581.906076382619
 31
0.0
  0
LINE
  5
1B48
330
18
100
AcDbEntity
  8
OBJECT
100
AcDbLine
 10
6186.689063938427
 20
5653.079968281119
 30
0.0
 11
6186.689063938427
 21
5584.406076382619
 31
0.0
  0
LINE
  5
1B4B
330
18
100
AcDbEntity
  8
OBJECT
100
AcDbLine
 10
6242.939125834976
 20
5653.079970453744
 30
0.0
 11
6242.939125834976
 21
5640.656138279168
 31
0.0
  0
LINE
  5
1B4C
330
18
100
AcDbEntity
  8
OBJECT
100
AcDbLine
 10
6240.439125834976
 20
5653.079970453744
 30
0.0
 11
6240.439125834976
 21
5638.156138279168
 31
0.0
  0
LINE
  5
1B4D
330
18
100
AcDbEntity
  8
OBJECT
100
AcDbLine
 10
6221.689105202793
 20
5653.079978905144
 30
0.0
 11
6221.689105202793
 21
5619.406117646985
 31
0.0
  0
LINE
  5
1B4E
330
18
100
AcDbEntity
  8
OBJECT
100
AcDbLine
 10
6224.189105202793
 20
5653.079978905144
 30
0.0
 11
6224.189105202793
 21
5621.906117646985
 31
0.0
  0
LINE
  5
1B4F
330
18
100
AcDbEntity
  8
OBJECT
100
AcDbLine
 10
6111.688981409695
 20
5653.079970453744
 30
0.0
 11
6111.688981409695
 21
5537.279970453744
 31
0.0
  0
LINE
  5
1B50
330
18
100
AcDbEntity
  8
OBJECT
100
AcDbLine
 10
6109.188981409696
 20
5653.079970453744
 30
0.0
 11
6109.188981409696
 21
5537.279970453744
 31
0.0
  0
LINE
  5
1B51
330
18
100
AcDbEntity
  8
OBJECT
100
AcDbLine
 10
6127.939002041879
 20
5653.079962002344
 30
0.0
 11
6127.939002041879
 21
5537.279962002344
 31
0.0
  0
LINE
  5
1B52
330
18
100
AcDbEntity
  8
OBJECT
100
AcDbLine
 10
6130.439002041878
 20
5653.079962002344
 30
0.0
 11
6130.439002041878
 21
5537.279962002344
 31
0.0
  0
LINE
  5
1B5E
330
18
100
AcDbEntity
  8
OBJECT
100
AcDbLine
 10
6011.762953664301
 20
5409.479966108492
 30
0.0
 11
5399.162953664299
 21
5409.479966108492
 31
0.0
  0
LINE
  5
1B5F
330
18
100
AcDbEntity
  8
OBJECT
100
AcDbLine
 10
6017.938881781038
 20
5415.65589422523
 30
0.0
 11
5399.162953664299
 21
5415.479966108493
 31
0.0
  0
LINE
  5
1B60
330
18
100
AcDbEntity
  8
OBJECT
100
AcDbLine
 10
5895.962953664302
 20
5293.679966108493
 30
0.0
 11
5399.162953664299
 21
5293.679966108493
 31
0.0
  0
LINE
  5
1B61
330
18
100
AcDbEntity
  8
OBJECT
100
AcDbLine
 10
5889.962953664301
 20
5287.679966108493
 30
0.0
 11
5399.162953664299
 21
5287.679966108493
 31
0.0
  0
LINE
  5
1B62
330
18
100
AcDbEntity
  8
OBJECT
100
AcDbLine
 10
5586.688407240831
 20
5415.479947033066
 30
0.0
 11
5586.688407240831
 21
5531.279947033066
 31
0.0
  0
LINE
  5
1B63
330
18
100
AcDbEntity
  8
OBJECT
100
AcDbLine
 10
5584.188407240832
 20
5415.479947033066
 30
0.0
 11
5584.188407240832
 21
5531.279947033066
 31
0.0
  0
LINE
  5
1B64
330
18
100
AcDbEntity
  8
OBJECT
100
AcDbLine
 10
5602.938427873015
 20
5415.479955484466
 30
0.0
 11
5602.938427873015
 21
5531.279955484466
 31
0.0
  0
LINE
  5
1B65
330
18
100
AcDbEntity
  8
OBJECT
100
AcDbLine
 10
5605.438427873014
 20
5415.479955484466
 30
0.0
 11
5605.438427873014
 21
5531.279955484466
 31
0.0
  0
LINE
  5
1B66
330
18
100
AcDbEntity
  8
OBJECT
100
AcDbLine
 10
5642.93846913738
 20
5415.479963935865
 30
0.0
 11
5642.93846913738
 21
5531.279963935865
 31
0.0
  0
LINE
  5
1B67
330
18
100
AcDbEntity
  8
OBJECT
100
AcDbLine
 10
5640.438469137381
 20
5415.479963935865
 30
0.0
 11
5640.438469137381
 21
5531.279963935865
 31
0.0
  0
LINE
  5
1B68
330
18
100
AcDbEntity
  8
OBJECT
100
AcDbLine
 10
5621.688448505198
 20
5415.479955484466
 30
0.0
 11
5621.688448505198
 21
5531.279955484466
 31
0.0
  0
LINE
  5
1B69
330
18
100
AcDbEntity
  8
OBJECT
100
AcDbLine
 10
5624.188448505197
 20
5415.479955484466
 30
0.0
 11
5624.188448505197
 21
5531.279955484466
 31
0.0
  0
LINE
  5
1B6A
330
18
100
AcDbEntity
  8
OBJECT
100
AcDbLine
 10
5659.188489769563
 20
5415.47994486044
 30
0.0
 11
5659.188489769563
 21
5531.27994486044
 31
0.0
  0
LINE
  5
1B6B
330
18
100
AcDbEntity
  8
OBJECT
100
AcDbLine
 10
5661.688489769563
 20
5415.47994486044
 30
0.0
 11
5661.688489769563
 21
5531.27994486044
 31
0.0
  0
LINE
  5
1B6C
330
18
100
AcDbEntity
  8
OBJECT
100
AcDbLine
 10
5736.688572298294
 20
5415.479947033066
 30
0.0
 11
5736.688572298294
 21
5531.279947033066
 31
0.0
  0
LINE
  5
1B6D
330
18
100
AcDbEntity
  8
OBJECT
100
AcDbLine
 10
5734.188572298295
 20
5415.479947033066
 30
0.0
 11
5734.188572298295
 21
5531.279947033066
 31
0.0
  0
LINE
  5
1B6E
330
18
100
AcDbEntity
  8
OBJECT
100
AcDbLine
 10
5752.938592930478
 20
5415.479955484466
 30
0.0
 11
5752.938592930478
 21
5531.279955484466
 31
0.0
  0
LINE
  5
1B6F
330
18
100
AcDbEntity
  8
OBJECT
100
AcDbLine
 10
5699.188531033929
 20
5415.479953311839
 30
0.0
 11
5699.188531033929
 21
5531.279953311839
 31
0.0
  0
LINE
  5
1B70
330
18
100
AcDbEntity
  8
OBJECT
100
AcDbLine
 10
5696.688531033929
 20
5415.479953311839
 30
0.0
 11
5696.688531033929
 21
5531.279953311839
 31
0.0
  0
LINE
  5
1B71
330
18
100
AcDbEntity
  8
OBJECT
100
AcDbLine
 10
5715.438551666112
 20
5415.47996176324
 30
0.0
 11
5715.438551666112
 21
5531.27996176324
 31
0.0
  0
LINE
  5
1B72
330
18
100
AcDbEntity
  8
OBJECT
100
AcDbLine
 10
5717.938551666112
 20
5415.47996176324
 30
0.0
 11
5717.938551666112
 21
5531.27996176324
 31
0.0
  0
LINE
  5
1B73
330
18
100
AcDbEntity
  8
OBJECT
100
AcDbLine
 10
5680.438510401746
 20
5415.479953311839
 30
0.0
 11
5680.438510401746
 21
5531.279953311839
 31
0.0
  0
LINE
  5
1B74
330
18
100
AcDbEntity
  8
OBJECT
100
AcDbLine
 10
5677.938510401746
 20
5415.479953311839
 30
0.0
 11
5677.938510401746
 21
5531.279953311839
 31
0.0
  0
LINE
  5
1B75
330
18
100
AcDbEntity
  8
OBJECT
100
AcDbLine
 10
5511.6883247121
 20
5415.479955484466
 30
0.0
 11
5511.6883247121
 21
5531.279955484466
 31
0.0
  0
LINE
  5
1B76
330
18
100
AcDbEntity
  8
OBJECT
100
AcDbLine
 10
5509.1883247121
 20
5415.479955484466
 30
0.0
 11
5509.1883247121
 21
5531.279955484466
 31
0.0
  0
LINE
  5
1B77
330
18
100
AcDbEntity
  8
OBJECT
100
AcDbLine
 10
5527.938345344283
 20
5415.479963935865
 30
0.0
 11
5527.938345344283
 21
5531.279963935865
 31
0.0
  0
LINE
  5
1B78
330
18
100
AcDbEntity
  8
OBJECT
100
AcDbLine
 10
5530.438345344283
 20
5415.479963935865
 30
0.0
 11
5530.438345344283
 21
5531.279963935865
 31
0.0
  0
LINE
  5
1B79
330
18
100
AcDbEntity
  8
OBJECT
100
AcDbLine
 10
5567.938386608648
 20
5415.479972387265
 30
0.0
 11
5567.938386608648
 21
5531.279972387265
 31
0.0
  0
LINE
  5
1B7A
330
18
100
AcDbEntity
  8
OBJECT
100
AcDbLine
 10
5565.438386608649
 20
5415.479972387265
 30
0.0
 11
5565.438386608649
 21
5531.279972387265
 31
0.0
  0
LINE
  5
1B7B
330
18
100
AcDbEntity
  8
OBJECT
100
AcDbLine
 10
5546.688365976466
 20
5415.479963935865
 30
0.0
 11
5546.688365976466
 21
5531.279963935865
 31
0.0
  0
LINE
  5
1B7C
330
18
100
AcDbEntity
  8
OBJECT
100
AcDbLine
 10
5549.188365976466
 20
5415.479963935865
 30
0.0
 11
5549.188365976466
 21
5531.279963935865
 31
0.0
  0
LINE
  5
1B7D
330
18
100
AcDbEntity
  8
OBJECT
100
AcDbLine
 10
5474.188283447734
 20
5415.479966108491
 30
0.0
 11
5474.188283447734
 21
5531.279966108492
 31
0.0
  0
LINE
  5
1B7E
330
18
100
AcDbEntity
  8
OBJECT
100
AcDbLine
 10
5471.688283447734
 20
5415.479966108491
 30
0.0
 11
5471.688283447734
 21
5531.279966108492
 31
0.0
  0
LINE
  5
1B7F
330
18
100
AcDbEntity
  8
OBJECT
100
AcDbLine
 10
5490.438304079917
 20
5415.479974559891
 30
0.0
 11
5490.438304079917
 21
5531.279974559891
 31
0.0
  0
LINE
  5
1B80
330
18
100
AcDbEntity
  8
OBJECT
100
AcDbLine
 10
5492.938304079917
 20
5415.479974559891
 30
0.0
 11
5492.938304079917
 21
5531.279974559891
 31
0.0
  0
LINE
  5
1B81
330
18
100
AcDbEntity
  8
OBJECT
100
AcDbLine
 10
5455.438262815551
 20
5415.479966108491
 30
0.0
 11
5455.438262815551
 21
5531.279966108492
 31
0.0
  0
LINE
  5
1B82
330
18
100
AcDbEntity
  8
OBJECT
100
AcDbLine
 10
5452.938262815552
 20
5415.479966108491
 30
0.0
 11
5452.938262815552
 21
5531.279966108492
 31
0.0
  0
LINE
  5
1B83
330
18
100
AcDbEntity
  8
OBJECT
100
AcDbLine
 10
5415.43823218797
 20
5415.479966108491
 30
0.0
 11
5415.43823218797
 21
5531.279966108492
 31
0.0
  0
LINE
  5
1B84
330
18
100
AcDbEntity
  8
OBJECT
100
AcDbLine
 10
5434.188242183369
 20
5415.479957657091
 30
0.0
 11
5434.188242183369
 21
5531.279957657092
 31
0.0
  0
LINE
  5
1B85
330
18
100
AcDbEntity
  8
OBJECT
100
AcDbLine
 10
5436.688242183368
 20
5415.479957657091
 30
0.0
 11
5436.688242183368
 21
5531.279957657092
 31
0.0
  0
LINE
  5
1B86
330
18
100
AcDbEntity
  8
OBJECT
100
AcDbLine
 10
5417.938232187969
 20
5415.479966108491
 30
0.0
 11
5417.938232187969
 21
5531.279966108492
 31
0.0
  0
LINE
  5
1B87
330
18
100
AcDbEntity
  8
OBJECT
100
AcDbLine
 10
5417.938232187969
 20
5409.479966108495
 30
0.0
 11
5417.938232187969
 21
5293.679966108493
 31
0.0
  0
LINE
  5
1B88
330
18
100
AcDbEntity
  8
OBJECT
100
AcDbLine
 10
5436.688242183368
 20
5409.479974559894
 30
0.0
 11
5436.688242183368
 21
5293.679974559893
 31
0.0
  0
LINE
  5
1B89
330
18
100
AcDbEntity
  8
OBJECT
100
AcDbLine
 10
5434.188242183369
 20
5409.479974559894
 30
0.0
 11
5434.188242183369
 21
5293.679974559893
 31
0.0
  0
LINE
  5
1B8A
330
18
100
AcDbEntity
  8
OBJECT
100
AcDbLine
 10
5415.43823218797
 20
5409.479966108495
 30
0.0
 11
5415.43823218797
 21
5293.679966108493
 31
0.0
  0
LINE
  5
1B8B
330
18
100
AcDbEntity
  8
OBJECT
100
AcDbLine
 10
5452.938262815552
 20
5409.479966108495
 30
0.0
 11
5452.938262815552
 21
5293.679966108493
 31
0.0
  0
LINE
  5
1B8C
330
18
100
AcDbEntity
  8
OBJECT
100
AcDbLine
 10
5455.438262815551
 20
5409.479966108495
 30
0.0
 11
5455.438262815551
 21
5293.679966108493
 31
0.0
  0
LINE
  5
1B8D
330
18
100
AcDbEntity
  8
OBJECT
100
AcDbLine
 10
5492.938304079917
 20
5409.479957657094
 30
0.0
 11
5492.938304079917
 21
5293.679957657094
 31
0.0
  0
LINE
  5
1B8E
330
18
100
AcDbEntity
  8
OBJECT
100
AcDbLine
 10
5490.438304079917
 20
5409.479957657094
 30
0.0
 11
5490.438304079917
 21
5293.679957657094
 31
0.0
  0
LINE
  5
1B8F
330
18
100
AcDbEntity
  8
OBJECT
100
AcDbLine
 10
5471.688283447734
 20
5409.479966108495
 30
0.0
 11
5471.688283447734
 21
5293.679966108493
 31
0.0
  0
LINE
  5
1B90
330
18
100
AcDbEntity
  8
OBJECT
100
AcDbLine
 10
5474.188283447734
 20
5409.479966108495
 30
0.0
 11
5474.188283447734
 21
5293.679966108493
 31
0.0
  0
LINE
  5
1B91
330
18
100
AcDbEntity
  8
OBJECT
100
AcDbLine
 10
5549.188365976466
 20
5409.47996828112
 30
0.0
 11
5549.188365976466
 21
5293.67996828112
 31
0.0
  0
LINE
  5
1B92
330
18
100
AcDbEntity
  8
OBJECT
100
AcDbLine
 10
5546.688365976466
 20
5409.47996828112
 30
0.0
 11
5546.688365976466
 21
5293.67996828112
 31
0.0
  0
LINE
  5
1B93
330
18
100
AcDbEntity
  8
OBJECT
100
AcDbLine
 10
5565.438386608649
 20
5409.47995982972
 30
0.0
 11
5565.438386608649
 21
5293.67995982972
 31
0.0
  0
LINE
  5
1B94
330
18
100
AcDbEntity
  8
OBJECT
100
AcDbLine
 10
5567.938386608648
 20
5409.47995982972
 30
0.0
 11
5567.938386608648
 21
5293.67995982972
 31
0.0
  0
LINE
  5
1B95
330
18
100
AcDbEntity
  8
OBJECT
100
AcDbLine
 10
5530.438345344283
 20
5409.47996828112
 30
0.0
 11
5530.438345344283
 21
5293.67996828112
 31
0.0
  0
LINE
  5
1B96
330
18
100
AcDbEntity
  8
OBJECT
100
AcDbLine
 10
5527.938345344283
 20
5409.47996828112
 30
0.0
 11
5527.938345344283
 21
5293.67996828112
 31
0.0
  0
LINE
  5
1B97
330
18
100
AcDbEntity
  8
OBJECT
100
AcDbLine
 10
5509.1883247121
 20
5409.479976732519
 30
0.0
 11
5509.1883247121
 21
5293.679976732519
 31
0.0
  0
LINE
  5
1B98
330
18
100
AcDbEntity
  8
OBJECT
100
AcDbLine
 10
5511.6883247121
 20
5409.479976732519
 30
0.0
 11
5511.6883247121
 21
5293.679976732519
 31
0.0
  0
LINE
  5
1B99
330
18
100
AcDbEntity
  8
OBJECT
100
AcDbLine
 10
5677.938510401746
 20
5409.479978905146
 30
0.0
 11
5677.938510401746
 21
5293.679978905146
 31
0.0
  0
LINE
  5
1B9A
330
18
100
AcDbEntity
  8
OBJECT
100
AcDbLine
 10
5680.438510401746
 20
5409.479978905146
 30
0.0
 11
5680.438510401746
 21
5293.679978905146
 31
0.0
  0
LINE
  5
1B9B
330
18
100
AcDbEntity
  8
OBJECT
100
AcDbLine
 10
5717.938551666112
 20
5409.479970453745
 30
0.0
 11
5717.938551666112
 21
5293.679970453745
 31
0.0
  0
LINE
  5
1B9C
330
18
100
AcDbEntity
  8
OBJECT
100
AcDbLine
 10
5715.438551666112
 20
5409.479970453745
 30
0.0
 11
5715.438551666112
 21
5293.679970453745
 31
0.0
  0
LINE
  5
1B9D
330
18
100
AcDbEntity
  8
OBJECT
100
AcDbLine
 10
5696.688531033929
 20
5409.479978905146
 30
0.0
 11
5696.688531033929
 21
5293.679978905146
 31
0.0
  0
LINE
  5
1B9E
330
18
100
AcDbEntity
  8
OBJECT
100
AcDbLine
 10
5699.188531033929
 20
5409.479978905146
 30
0.0
 11
5699.188531033929
 21
5293.679978905146
 31
0.0
  0
LINE
  5
1B9F
330
18
100
AcDbEntity
  8
OBJECT
100
AcDbLine
 10
5752.938592930478
 20
5409.479976732519
 30
0.0
 11
5752.938592930478
 21
5293.679976732519
 31
0.0
  0
LINE
  5
1BA0
330
18
100
AcDbEntity
  8
OBJECT
100
AcDbLine
 10
5734.188572298295
 20
5409.47998518392
 30
0.0
 11
5734.188572298295
 21
5293.679985183919
 31
0.0
  0
LINE
  5
1BA1
330
18
100
AcDbEntity
  8
OBJECT
100
AcDbLine
 10
5736.688572298294
 20
5409.47998518392
 30
0.0
 11
5736.688572298294
 21
5293.679985183919
 31
0.0
  0
LINE
  5
1BA2
330
18
100
AcDbEntity
  8
OBJECT
100
AcDbLine
 10
5661.688489769563
 20
5409.479987356546
 30
0.0
 11
5661.688489769563
 21
5293.679987356545
 31
0.0
  0
LINE
  5
1BA3
330
18
100
AcDbEntity
  8
OBJECT
100
AcDbLine
 10
5659.188489769563
 20
5409.479987356546
 30
0.0
 11
5659.188489769563
 21
5293.679987356545
 31
0.0
  0
LINE
  5
1BA4
330
18
100
AcDbEntity
  8
OBJECT
100
AcDbLine
 10
5624.188448505197
 20
5409.479976732519
 30
0.0
 11
5624.188448505197
 21
5293.679976732519
 31
0.0
  0
LINE
  5
1BA5
330
18
100
AcDbEntity
  8
OBJECT
100
AcDbLine
 10
5621.688448505198
 20
5409.479976732519
 30
0.0
 11
5621.688448505198
 21
5293.679976732519
 31
0.0
  0
LINE
  5
1BA6
330
18
100
AcDbEntity
  8
OBJECT
100
AcDbLine
 10
5640.438469137381
 20
5409.47996828112
 30
0.0
 11
5640.438469137381
 21
5293.67996828112
 31
0.0
  0
LINE
  5
1BA7
330
18
100
AcDbEntity
  8
OBJECT
100
AcDbLine
 10
5642.93846913738
 20
5409.47996828112
 30
0.0
 11
5642.93846913738
 21
5293.67996828112
 31
0.0
  0
LINE
  5
1BA8
330
18
100
AcDbEntity
  8
OBJECT
100
AcDbLine
 10
5605.438427873014
 20
5409.479976732519
 30
0.0
 11
5605.438427873014
 21
5293.679976732519
 31
0.0
  0
LINE
  5
1BA9
330
18
100
AcDbEntity
  8
OBJECT
100
AcDbLine
 10
5602.938427873015
 20
5409.479976732519
 30
0.0
 11
5602.938427873015
 21
5293.679976732519
 31
0.0
  0
LINE
  5
1BAA
330
18
100
AcDbEntity
  8
OBJECT
100
AcDbLine
 10
5584.188407240832
 20
5409.47998518392
 30
0.0
 11
5584.188407240832
 21
5293.679985183919
 31
0.0
  0
LINE
  5
1BAB
330
18
100
AcDbEntity
  8
OBJECT
100
AcDbLine
 10
5586.688407240831
 20
5409.47998518392
 30
0.0
 11
5586.688407240831
 21
5293.679985183919
 31
0.0
  0
LINE
  5
1BAC
330
18
100
AcDbEntity
  8
OBJECT
100
AcDbLine
 10
6074.188940145329
 20
5471.905952589522
 30
0.0
 11
6074.188940145329
 21
5531.279953311839
 31
0.0
  0
LINE
  5
1BAD
330
18
100
AcDbEntity
  8
OBJECT
100
AcDbLine
 10
6071.68894014533
 20
5469.405952589522
 30
0.0
 11
6071.68894014533
 21
5531.279953311839
 31
0.0
  0
LINE
  5
1BAE
330
18
100
AcDbEntity
  8
OBJECT
100
AcDbLine
 10
6090.438960777513
 20
5488.155973221704
 30
0.0
 11
6090.438960777513
 21
5531.27996176324
 31
0.0
  0
LINE
  5
1BAF
330
18
100
AcDbEntity
  8
OBJECT
100
AcDbLine
 10
6092.938960777512
 20
5490.655973221705
 30
0.0
 11
6092.938960777512
 21
5531.27996176324
 31
0.0
  0
LINE
  5
1BB0
330
18
100
AcDbEntity
  8
OBJECT
100
AcDbLine
 10
6036.688898880964
 20
5434.405911325156
 30
0.0
 11
6036.688898880964
 21
5531.279963935865
 31
0.0
  0
LINE
  5
1BB1
330
18
100
AcDbEntity
  8
OBJECT
100
AcDbLine
 10
6034.188898880964
 20
5431.905911325156
 30
0.0
 11
6034.188898880964
 21
5531.279963935865
 31
0.0
  0
LINE
  5
1BB2
330
18
100
AcDbEntity
  8
OBJECT
100
AcDbLine
 10
6052.938919513147
 20
5450.655931957339
 30
0.0
 11
6052.938919513147
 21
5531.279972387265
 31
0.0
  0
LINE
  5
1BB3
330
18
100
AcDbEntity
  8
OBJECT
100
AcDbLine
 10
6055.438919513147
 20
5453.155931957339
 30
0.0
 11
6055.438919513147
 21
5531.279972387265
 31
0.0
  0
LINE
  5
1BB4
330
18
100
AcDbEntity
  8
OBJECT
100
AcDbLine
 10
5961.688819884489
 20
5415.479934236414
 30
0.0
 11
5961.688819884489
 21
5531.279934236414
 31
0.0
  0
LINE
  5
1BB5
330
18
100
AcDbEntity
  8
OBJECT
100
AcDbLine
 10
5959.18881988449
 20
5415.479934236414
 30
0.0
 11
5959.18881988449
 21
5531.279934236414
 31
0.0
  0
LINE
  5
1BB6
330
18
100
AcDbEntity
  8
OBJECT
100
AcDbLine
 10
5977.938840516673
 20
5415.479942687814
 30
0.0
 11
5977.938840516673
 21
5531.279942687814
 31
0.0
  0
LINE
  5
1BB7
330
18
100
AcDbEntity
  8
OBJECT
100
AcDbLine
 10
5980.438840516672
 20
5415.479942687814
 30
0.0
 11
5980.438840516672
 21
5531.279942687814
 31
0.0
  0
LINE
  5
1BB8
330
18
100
AcDbEntity
  8
OBJECT
100
AcDbLine
 10
6017.938881781038
 20
5415.479951139214
 30
0.0
 11
6017.938881781038
 21
5531.279951139215
 31
0.0
  0
LINE
  5
1BB9
330
18
100
AcDbEntity
  8
OBJECT
100
AcDbLine
 10
6015.438881781038
 20
5415.479951139214
 30
0.0
 11
6015.438881781038
 21
5531.279951139215
 31
0.0
  0
LINE
  5
1BBA
330
18
100
AcDbEntity
  8
OBJECT
100
AcDbLine
 10
5996.688861148856
 20
5415.479942687814
 30
0.0
 11
5996.688861148856
 21
5531.279942687814
 31
0.0
  0
LINE
  5
1BBB
330
18
100
AcDbEntity
  8
OBJECT
100
AcDbLine
 10
5999.188861148855
 20
5415.479942687814
 30
0.0
 11
5999.188861148855
 21
5531.279942687814
 31
0.0
  0
LINE
  5
1BBC
330
18
100
AcDbEntity
  8
OBJECT
100
AcDbLine
 10
5940.438799252307
 20
5415.479953311839
 30
0.0
 11
5940.438799252307
 21
5531.279953311839
 31
0.0
  0
LINE
  5
1BBD
330
18
100
AcDbEntity
  8
OBJECT
100
AcDbLine
 10
5942.938799252306
 20
5415.479953311839
 30
0.0
 11
5942.938799252306
 21
5531.279953311839
 31
0.0
  0
LINE
  5
1BBE
330
18
100
AcDbEntity
  8
OBJECT
100
AcDbLine
 10
5755.438592930477
 20
5415.479955484466
 30
0.0
 11
5755.438592930477
 21
5531.279955484466
 31
0.0
  0
LINE
  5
1BBF
330
18
100
AcDbEntity
  8
OBJECT
100
AcDbLine
 10
5792.938634194843
 20
5415.479963935865
 30
0.0
 11
5792.938634194843
 21
5531.279963935865
 31
0.0
  0
LINE
  5
1BC0
330
18
100
AcDbEntity
  8
OBJECT
100
AcDbLine
 10
5790.438634194844
 20
5415.479963935865
 30
0.0
 11
5790.438634194844
 21
5531.279963935865
 31
0.0
  0
LINE
  5
1BC1
330
18
100
AcDbEntity
  8
OBJECT
100
AcDbLine
 10
5771.688613562661
 20
5415.479955484466
 30
0.0
 11
5771.688613562661
 21
5531.279955484466
 31
0.0
  0
LINE
  5
1BC2
330
18
100
AcDbEntity
  8
OBJECT
100
AcDbLine
 10
5774.18861356266
 20
5415.479955484466
 30
0.0
 11
5774.18861356266
 21
5531.279955484466
 31
0.0
  0
LINE
  5
1BC3
330
18
100
AcDbEntity
  8
OBJECT
100
AcDbLine
 10
5849.188696091392
 20
5415.479953311839
 30
0.0
 11
5849.188696091392
 21
5531.279953311839
 31
0.0
  0
LINE
  5
1BC4
330
18
100
AcDbEntity
  8
OBJECT
100
AcDbLine
 10
5846.688696091392
 20
5415.479953311839
 30
0.0
 11
5846.688696091392
 21
5531.279953311839
 31
0.0
  0
LINE
  5
1BC5
330
18
100
AcDbEntity
  8
OBJECT
100
AcDbLine
 10
5865.438716723575
 20
5415.47996176324
 30
0.0
 11
5865.438716723575
 21
5531.27996176324
 31
0.0
  0
LINE
  5
1BC6
330
18
100
AcDbEntity
  8
OBJECT
100
AcDbLine
 10
5867.938716723575
 20
5415.47996176324
 30
0.0
 11
5867.938716723575
 21
5531.27996176324
 31
0.0
  0
LINE
  5
1BC7
330
18
100
AcDbEntity
  8
OBJECT
100
AcDbLine
 10
5830.438675459209
 20
5415.479953311839
 30
0.0
 11
5830.438675459209
 21
5531.279953311839
 31
0.0
  0
LINE
  5
1BC8
330
18
100
AcDbEntity
  8
OBJECT
100
AcDbLine
 10
5827.938675459209
 20
5415.479953311839
 30
0.0
 11
5827.938675459209
 21
5531.279953311839
 31
0.0
  0
LINE
  5
1BC9
330
18
100
AcDbEntity
  8
OBJECT
100
AcDbLine
 10
5809.188654827027
 20
5415.47994486044
 30
0.0
 11
5809.188654827027
 21
5531.27994486044
 31
0.0
  0
LINE
  5
1BCA
330
18
100
AcDbEntity
  8
OBJECT
100
AcDbLine
 10
5811.688654827026
 20
5415.47994486044
 30
0.0
 11
5811.688654827026
 21
5531.27994486044
 31
0.0
  0
LINE
  5
1BCB
330
18
100
AcDbEntity
  8
OBJECT
100
AcDbLine
 10
5924.188778620123
 20
5415.47994486044
 30
0.0
 11
5924.188778620123
 21
5531.27994486044
 31
0.0
  0
LINE
  5
1BCC
330
18
100
AcDbEntity
  8
OBJECT
100
AcDbLine
 10
5921.688778620124
 20
5415.47994486044
 30
0.0
 11
5921.688778620124
 21
5531.27994486044
 31
0.0
  0
LINE
  5
1BCD
330
18
100
AcDbEntity
  8
OBJECT
100
AcDbLine
 10
5905.438757987941
 20
5415.47994486044
 30
0.0
 11
5905.438757987941
 21
5531.27994486044
 31
0.0
  0
LINE
  5
1BCE
330
18
100
AcDbEntity
  8
OBJECT
100
AcDbLine
 10
5902.938757987941
 20
5415.47994486044
 30
0.0
 11
5902.938757987941
 21
5531.27994486044
 31
0.0
  0
LINE
  5
1BCF
330
18
100
AcDbEntity
  8
OBJECT
100
AcDbLine
 10
5884.188737355758
 20
5415.479936409041
 30
0.0
 11
5884.188737355758
 21
5531.279936409041
 31
0.0
  0
LINE
  5
1BD0
330
18
100
AcDbEntity
  8
OBJECT
100
AcDbLine
 10
5886.688737355758
 20
5415.479936409041
 30
0.0
 11
5886.688737355758
 21
5531.279936409041
 31
0.0
  0
LINE
  5
1BD1
330
18
100
AcDbEntity
  8
OBJECT
100
AcDbLine
 10
5886.688737355758
 20
5409.479995807945
 30
0.0
 11
5886.688737355758
 21
5293.679995807945
 31
0.0
  0
LINE
  5
1BD2
330
18
100
AcDbEntity
  8
OBJECT
100
AcDbLine
 10
5884.188737355758
 20
5409.479995807945
 30
0.0
 11
5884.188737355758
 21
5293.679995807945
 31
0.0
  0
LINE
  5
1BD3
330
18
100
AcDbEntity
  8
OBJECT
100
AcDbLine
 10
5902.938757987941
 20
5409.479987356546
 30
0.0
 11
5902.938757987941
 21
5300.655770432133
 31
0.0
  0
LINE
  5
1BD4
330
18
100
AcDbEntity
  8
OBJECT
100
AcDbLine
 10
5905.438757987941
 20
5409.479987356546
 30
0.0
 11
5905.438757987941
 21
5303.155770432133
 31
0.0
  0
LINE
  5
1BD5
330
18
100
AcDbEntity
  8
OBJECT
100
AcDbLine
 10
5921.688778620124
 20
5409.479987356546
 30
0.0
 11
5921.688778620124
 21
5319.405791064315
 31
0.0
  0
LINE
  5
1BD6
330
18
100
AcDbEntity
  8
OBJECT
100
AcDbLine
 10
5924.188778620123
 20
5409.479987356546
 30
0.0
 11
5924.188778620123
 21
5321.905791064316
 31
0.0
  0
LINE
  5
1BD7
330
18
100
AcDbEntity
  8
OBJECT
100
AcDbLine
 10
5811.688654827026
 20
5409.479987356546
 30
0.0
 11
5811.688654827026
 21
5293.679987356545
 31
0.0
  0
LINE
  5
1BD8
330
18
100
AcDbEntity
  8
OBJECT
100
AcDbLine
 10
5809.188654827027
 20
5409.479987356546
 30
0.0
 11
5809.188654827027
 21
5293.679987356545
 31
0.0
  0
LINE
  5
1BD9
330
18
100
AcDbEntity
  8
OBJECT
100
AcDbLine
 10
5827.938675459209
 20
5409.479978905146
 30
0.0
 11
5827.938675459209
 21
5293.679978905146
 31
0.0
  0
LINE
  5
1BDA
330
18
100
AcDbEntity
  8
OBJECT
100
AcDbLine
 10
5830.438675459209
 20
5409.479978905146
 30
0.0
 11
5830.438675459209
 21
5293.679978905146
 31
0.0
  0
LINE
  5
1BDB
330
18
100
AcDbEntity
  8
OBJECT
100
AcDbLine
 10
5867.938716723575
 20
5409.479970453745
 30
0.0
 11
5867.938716723575
 21
5293.679970453745
 31
0.0
  0
LINE
  5
1BDC
330
18
100
AcDbEntity
  8
OBJECT
100
AcDbLine
 10
5865.438716723575
 20
5409.479970453745
 30
0.0
 11
5865.438716723575
 21
5293.679970453745
 31
0.0
  0
LINE
  5
1BDD
330
18
100
AcDbEntity
  8
OBJECT
100
AcDbLine
 10
5846.688696091392
 20
5409.479978905146
 30
0.0
 11
5846.688696091392
 21
5293.679978905146
 31
0.0
  0
LINE
  5
1BDE
330
18
100
AcDbEntity
  8
OBJECT
100
AcDbLine
 10
5849.188696091392
 20
5409.479978905146
 30
0.0
 11
5849.188696091392
 21
5293.679978905146
 31
0.0
  0
LINE
  5
1BDF
330
18
100
AcDbEntity
  8
OBJECT
100
AcDbLine
 10
5774.18861356266
 20
5409.479976732519
 30
0.0
 11
5774.18861356266
 21
5293.679976732519
 31
0.0
  0
LINE
  5
1BE0
330
18
100
AcDbEntity
  8
OBJECT
100
AcDbLine
 10
5771.688613562661
 20
5409.479976732519
 30
0.0
 11
5771.688613562661
 21
5293.679976732519
 31
0.0
  0
LINE
  5
1BE1
330
18
100
AcDbEntity
  8
OBJECT
100
AcDbLine
 10
5790.438634194844
 20
5409.47996828112
 30
0.0
 11
5790.438634194844
 21
5293.67996828112
 31
0.0
  0
LINE
  5
1BE2
330
18
100
AcDbEntity
  8
OBJECT
100
AcDbLine
 10
5792.938634194843
 20
5409.47996828112
 30
0.0
 11
5792.938634194843
 21
5293.67996828112
 31
0.0
  0
LINE
  5
1BE3
330
18
100
AcDbEntity
  8
OBJECT
100
AcDbLine
 10
5755.438592930477
 20
5409.479976732519
 30
0.0
 11
5755.438592930477
 21
5293.679976732519
 31
0.0
  0
LINE
  5
1BE4
330
18
100
AcDbEntity
  8
OBJECT
100
AcDbLine
 10
5942.938799252306
 20
5409.479978905146
 30
0.0
 11
5942.938799252306
 21
5340.655811696499
 31
0.0
  0
LINE
  5
1BE5
330
18
100
AcDbEntity
  8
OBJECT
100
AcDbLine
 10
5940.438799252307
 20
5409.479978905146
 30
0.0
 11
5940.438799252307
 21
5338.155811696498
 31
0.0
  0
LINE
  5
1BE6
330
18
100
AcDbEntity
  8
OBJECT
100
AcDbLine
 10
5999.188861148855
 20
5409.47998952917
 30
0.0
 11
5999.188861148855
 21
5396.905873593047
 31
0.0
  0
LINE
  5
1BE7
330
18
100
AcDbEntity
  8
OBJECT
100
AcDbLine
 10
5996.688861148856
 20
5409.47998952917
 30
0.0
 11
5996.688861148856
 21
5394.405873593047
 31
0.0
  0
LINE
  5
1BEA
330
18
100
AcDbEntity
  8
OBJECT
100
AcDbLine
 10
5980.438840516672
 20
5409.47998952917
 30
0.0
 11
5980.438840516672
 21
5378.155852960865
 31
0.0
  0
LINE
  5
1BEB
330
18
100
AcDbEntity
  8
OBJECT
100
AcDbLine
 10
5977.938840516673
 20
5409.47998952917
 30
0.0
 11
5977.938840516673
 21
5375.655852960864
 31
0.0
  0
LINE
  5
1BEC
330
18
100
AcDbEntity
  8
OBJECT
100
AcDbLine
 10
5959.18881988449
 20
5409.479997980572
 30
0.0
 11
5959.18881988449
 21
5356.905832328681
 31
0.0
  0
LINE
  5
1BED
330
18
100
AcDbEntity
  8
OBJECT
100
AcDbLine
 10
5961.688819884489
 20
5409.479997980572
 30
0.0
 11
5961.688819884489
 21
5359.405832328682
 31
0.0
  0
LINE
  5
1C00
330
18
100
AcDbEntity
  8
OBJECT
100
AcDbLine
 10
6130.439002041878
 20
5528.156014486071
 30
0.0
 11
6130.439002041878
 21
5531.279970214639
 31
0.0
  0
LINE
  5
1C01
330
18
100
AcDbEntity
  8
OBJECT
100
AcDbLine
 10
6127.939002041879
 20
5525.65601448607
 30
0.0
 11
6127.939002041879
 21
5531.279970214639
 31
0.0
  0
LINE
  5
1C02
330
18
100
AcDbEntity
  8
OBJECT
100
AcDbLine
 10
6109.188981409696
 20
5506.905993853887
 30
0.0
 11
6109.188981409696
 21
5531.27996176324
 31
0.0
  0
LINE
  5
1C03
330
18
100
AcDbEntity
  8
OBJECT
100
AcDbLine
 10
6111.688981409695
 20
5509.405993853888
 30
0.0
 11
6111.688981409695
 21
5531.27996176324
 31
0.0
  0
LINE
  5
1C30
330
18
100
AcDbEntity
  8
OBJECT
100
AcDbLine
 10
5768.162953664302
 20
5165.879966108494
 30
0.0
 11
5399.162953664299
 21
5165.879966108494
 31
0.0
  0
LINE
  5
1C31
330
18
100
AcDbEntity
  8
OBJECT
100
AcDbLine
 10
5774.162953664302
 20
5171.879966108495
 30
0.0
 11
5399.162953664299
 21
5171.879966108495
 31
0.0
  0
LINE
  5
1C32
330
18
100
AcDbEntity
  8
OBJECT
100
AcDbLine
 10
5652.362953664303
 20
5050.079966108494
 30
0.0
 11
5399.162953664299
 21
5050.079966108494
 31
0.0
  0
LINE
  5
1C33
330
18
100
AcDbEntity
  8
OBJECT
100
AcDbLine
 10
5646.362953664303
 20
5044.079966108495
 30
0.0
 11
5399.162953664299
 21
5044.079966108495
 31
0.0
  0
LINE
  5
1C34
330
18
100
AcDbEntity
  8
OBJECT
100
AcDbLine
 10
5524.562953664304
 20
4922.279966108495
 30
0.0
 11
5399.162953664299
 21
4922.279966108495
 31
0.0
  0
LINE
  5
1C35
330
18
100
AcDbEntity
  8
OBJECT
100
AcDbLine
 10
5530.562953664304
 20
4928.279966108496
 30
0.0
 11
5399.162953664299
 21
4928.279966108496
 31
0.0
  0
LINE
  5
1C36
330
18
100
AcDbEntity
  8
OBJECT
100
AcDbLine
 10
5408.762953664304
 20
4806.479966108496
 30
0.0
 11
5399.162953664299
 21
4806.479966108496
 31
0.0
  0
LINE
  5
1C37
330
18
100
AcDbEntity
  8
OBJECT
100
AcDbLine
 10
5402.762953664304
 20
4800.479966108497
 30
0.0
 11
5399.162953664299
 21
4800.479966108497
 31
0.0
  0
LINE
  5
1C4A
330
18
100
AcDbEntity
  8
OBJECT
100
AcDbLine
 10
5755.438592930477
 20
5171.879955484467
 30
0.0
 11
5755.438592930477
 21
5287.679955484467
 31
0.0
  0
LINE
  5
1C4B
330
18
100
AcDbEntity
  8
OBJECT
100
AcDbLine
 10
5792.938634194843
 20
5190.655646639036
 30
0.0
 11
5792.938634194843
 21
5287.679963935867
 31
0.0
  0
LINE
  5
1C4C
330
18
100
AcDbEntity
  8
OBJECT
100
AcDbLine
 10
5790.438634194844
 20
5188.155646639035
 30
0.0
 11
5790.438634194844
 21
5287.679963935867
 31
0.0
  0
LINE
  5
1C4D
330
18
100
AcDbEntity
  8
OBJECT
100
AcDbLine
 10
5771.688613562661
 20
5171.879955484467
 30
0.0
 11
5771.688613562661
 21
5287.679955484467
 31
0.0
  0
LINE
  5
1C4E
330
18
100
AcDbEntity
  8
OBJECT
100
AcDbLine
 10
5774.18861356266
 20
5171.879955484467
 30
0.0
 11
5774.18861356266
 21
5287.679955484467
 31
0.0
  0
LINE
  5
1C4F
330
18
100
AcDbEntity
  8
OBJECT
100
AcDbLine
 10
5849.188696091392
 20
5246.905708535584
 30
0.0
 11
5849.188696091392
 21
5287.67995331184
 31
0.0
  0
LINE
  5
1C50
330
18
100
AcDbEntity
  8
OBJECT
100
AcDbLine
 10
5846.688696091392
 20
5244.405708535584
 30
0.0
 11
5846.688696091392
 21
5287.67995331184
 31
0.0
  0
LINE
  5
1C51
330
18
100
AcDbEntity
  8
OBJECT
100
AcDbLine
 10
5865.438716723575
 20
5263.155729167767
 30
0.0
 11
5865.438716723575
 21
5287.679961763242
 31
0.0
  0
LINE
  5
1C52
330
18
100
AcDbEntity
  8
OBJECT
100
AcDbLine
 10
5867.938716723575
 20
5265.655729167767
 30
0.0
 11
5867.938716723575
 21
5287.679961763242
 31
0.0
  0
LINE
  5
1C53
330
18
100
AcDbEntity
  8
OBJECT
100
AcDbLine
 10
5830.438675459209
 20
5228.155687903401
 30
0.0
 11
5830.438675459209
 21
5287.67995331184
 31
0.0
  0
LINE
  5
1C54
330
18
100
AcDbEntity
  8
OBJECT
100
AcDbLine
 10
5827.938675459209
 20
5225.655687903401
 30
0.0
 11
5827.938675459209
 21
5287.67995331184
 31
0.0
  0
LINE
  5
1C55
330
18
100
AcDbEntity
  8
OBJECT
100
AcDbLine
 10
5809.188654827027
 20
5206.905667271218
 30
0.0
 11
5809.188654827027
 21
5287.679944860442
 31
0.0
  0
LINE
  5
1C56
330
18
100
AcDbEntity
  8
OBJECT
100
AcDbLine
 10
5811.688654827026
 20
5209.405667271219
 30
0.0
 11
5811.688654827026
 21
5287.679944860442
 31
0.0
  0
LINE
  5
1C5B
330
18
100
AcDbEntity
  8
OBJECT
100
AcDbLine
 10
5884.188737355758
 20
5281.90574979995
 30
0.0
 11
5884.188737355758
 21
5287.679936409042
 31
0.0
  0
LINE
  5
1C5C
330
18
100
AcDbEntity
  8
OBJECT
100
AcDbLine
 10
5886.688737355758
 20
5284.40574979995
 30
0.0
 11
5886.688737355758
 21
5287.679936409042
 31
0.0
  0
LINE
  5
1C5D
330
18
100
AcDbEntity
  8
OBJECT
100
AcDbLine
 10
5586.688407240831
 20
5171.879947033067
 30
0.0
 11
5586.688407240831
 21
5287.679947033068
 31
0.0
  0
LINE
  5
1C5E
330
18
100
AcDbEntity
  8
OBJECT
100
AcDbLine
 10
5584.188407240832
 20
5171.879947033067
 30
0.0
 11
5584.188407240832
 21
5287.679947033068
 31
0.0
  0
LINE
  5
1C5F
330
18
100
AcDbEntity
  8
OBJECT
100
AcDbLine
 10
5602.938427873015
 20
5171.879955484467
 30
0.0
 11
5602.938427873015
 21
5287.679955484467
 31
0.0
  0
LINE
  5
1C60
330
18
100
AcDbEntity
  8
OBJECT
100
AcDbLine
 10
5605.438427873014
 20
5171.879955484467
 30
0.0
 11
5605.438427873014
 21
5287.679955484467
 31
0.0
  0
LINE
  5
1C61
330
18
100
AcDbEntity
  8
OBJECT
100
AcDbLine
 10
5642.93846913738
 20
5171.879963935867
 30
0.0
 11
5642.93846913738
 21
5287.679963935867
 31
0.0
  0
LINE
  5
1C62
330
18
100
AcDbEntity
  8
OBJECT
100
AcDbLine
 10
5640.438469137381
 20
5171.879963935867
 30
0.0
 11
5640.438469137381
 21
5287.679963935867
 31
0.0
  0
LINE
  5
1C63
330
18
100
AcDbEntity
  8
OBJECT
100
AcDbLine
 10
5621.688448505198
 20
5171.879955484467
 30
0.0
 11
5621.688448505198
 21
5287.679955484467
 31
0.0
  0
LINE
  5
1C64
330
18
100
AcDbEntity
  8
OBJECT
100
AcDbLine
 10
5624.188448505197
 20
5171.879955484467
 30
0.0
 11
5624.188448505197
 21
5287.679955484467
 31
0.0
  0
LINE
  5
1C65
330
18
100
AcDbEntity
  8
OBJECT
100
AcDbLine
 10
5659.188489769563
 20
5171.879944860442
 30
0.0
 11
5659.188489769563
 21
5287.679944860442
 31
0.0
  0
LINE
  5
1C66
330
18
100
AcDbEntity
  8
OBJECT
100
AcDbLine
 10
5661.688489769563
 20
5171.879944860442
 30
0.0
 11
5661.688489769563
 21
5287.679944860442
 31
0.0
  0
LINE
  5
1C67
330
18
100
AcDbEntity
  8
OBJECT
100
AcDbLine
 10
5736.688572298294
 20
5171.879947033067
 30
0.0
 11
5736.688572298294
 21
5287.679947033068
 31
0.0
  0
LINE
  5
1C68
330
18
100
AcDbEntity
  8
OBJECT
100
AcDbLine
 10
5734.188572298295
 20
5171.879947033067
 30
0.0
 11
5734.188572298295
 21
5287.679947033068
 31
0.0
  0
LINE
  5
1C69
330
18
100
AcDbEntity
  8
OBJECT
100
AcDbLine
 10
5752.938592930478
 20
5171.879955484467
 30
0.0
 11
5752.938592930478
 21
5287.679955484467
 31
0.0
  0
LINE
  5
1C6A
330
18
100
AcDbEntity
  8
OBJECT
100
AcDbLine
 10
5699.188531033929
 20
5171.87995331184
 30
0.0
 11
5699.188531033929
 21
5287.67995331184
 31
0.0
  0
LINE
  5
1C6B
330
18
100
AcDbEntity
  8
OBJECT
100
AcDbLine
 10
5696.688531033929
 20
5171.87995331184
 30
0.0
 11
5696.688531033929
 21
5287.67995331184
 31
0.0
  0
LINE
  5
1C6C
330
18
100
AcDbEntity
  8
OBJECT
100
AcDbLine
 10
5715.438551666112
 20
5171.879961763242
 30
0.0
 11
5715.438551666112
 21
5287.679961763242
 31
0.0
  0
LINE
  5
1C6D
330
18
100
AcDbEntity
  8
OBJECT
100
AcDbLine
 10
5717.938551666112
 20
5171.879961763242
 30
0.0
 11
5717.938551666112
 21
5287.679961763242
 31
0.0
  0
LINE
  5
1C6E
330
18
100
AcDbEntity
  8
OBJECT
100
AcDbLine
 10
5680.438510401746
 20
5171.87995331184
 30
0.0
 11
5680.438510401746
 21
5287.67995331184
 31
0.0
  0
LINE
  5
1C6F
330
18
100
AcDbEntity
  8
OBJECT
100
AcDbLine
 10
5677.938510401746
 20
5171.87995331184
 30
0.0
 11
5677.938510401746
 21
5287.67995331184
 31
0.0
  0
LINE
  5
1C70
330
18
100
AcDbEntity
  8
OBJECT
100
AcDbLine
 10
5511.6883247121
 20
5171.879955484467
 30
0.0
 11
5511.6883247121
 21
5287.679955484467
 31
0.0
  0
LINE
  5
1C71
330
18
100
AcDbEntity
  8
OBJECT
100
AcDbLine
 10
5509.1883247121
 20
5171.879955484467
 30
0.0
 11
5509.1883247121
 21
5287.679955484467
 31
0.0
  0
LINE
  5
1C72
330
18
100
AcDbEntity
  8
OBJECT
100
AcDbLine
 10
5527.938345344283
 20
5171.879963935867
 30
0.0
 11
5527.938345344283
 21
5287.679963935867
 31
0.0
  0
LINE
  5
1C73
330
18
100
AcDbEntity
  8
OBJECT
100
AcDbLine
 10
5530.438345344283
 20
5171.879963935867
 30
0.0
 11
5530.438345344283
 21
5287.679963935867
 31
0.0
  0
LINE
  5
1C74
330
18
100
AcDbEntity
  8
OBJECT
100
AcDbLine
 10
5567.938386608648
 20
5171.879972387266
 30
0.0
 11
5567.938386608648
 21
5287.679972387266
 31
0.0
  0
LINE
  5
1C75
330
18
100
AcDbEntity
  8
OBJECT
100
AcDbLine
 10
5565.438386608649
 20
5171.879972387266
 30
0.0
 11
5565.438386608649
 21
5287.679972387266
 31
0.0
  0
LINE
  5
1C76
330
18
100
AcDbEntity
  8
OBJECT
100
AcDbLine
 10
5546.688365976466
 20
5171.879963935867
 30
0.0
 11
5546.688365976466
 21
5287.679963935867
 31
0.0
  0
LINE
  5
1C77
330
18
100
AcDbEntity
  8
OBJECT
100
AcDbLine
 10
5549.188365976466
 20
5171.879963935867
 30
0.0
 11
5549.188365976466
 21
5287.679963935867
 31
0.0
  0
LINE
  5
1C78
330
18
100
AcDbEntity
  8
OBJECT
100
AcDbLine
 10
5474.188283447734
 20
5171.879966108492
 30
0.0
 11
5474.188283447734
 21
5287.679966108493
 31
0.0
  0
LINE
  5
1C79
330
18
100
AcDbEntity
  8
OBJECT
100
AcDbLine
 10
5471.688283447734
 20
5171.879966108492
 30
0.0
 11
5471.688283447734
 21
5287.679966108493
 31
0.0
  0
LINE
  5
1C7A
330
18
100
AcDbEntity
  8
OBJECT
100
AcDbLine
 10
5490.438304079917
 20
5171.879974559892
 30
0.0
 11
5490.438304079917
 21
5287.679974559893
 31
0.0
  0
LINE
  5
1C7B
330
18
100
AcDbEntity
  8
OBJECT
100
AcDbLine
 10
5492.938304079917
 20
5171.879974559892
 30
0.0
 11
5492.938304079917
 21
5287.679974559893
 31
0.0
  0
LINE
  5
1C7C
330
18
100
AcDbEntity
  8
OBJECT
100
AcDbLine
 10
5455.438262815551
 20
5171.879966108492
 30
0.0
 11
5455.438262815551
 21
5287.679966108493
 31
0.0
  0
LINE
  5
1C7D
330
18
100
AcDbEntity
  8
OBJECT
100
AcDbLine
 10
5452.938262815552
 20
5171.879966108492
 30
0.0
 11
5452.938262815552
 21
5287.679966108493
 31
0.0
  0
LINE
  5
1C7E
330
18
100
AcDbEntity
  8
OBJECT
100
AcDbLine
 10
5415.43823218797
 20
5171.879966108492
 30
0.0
 11
5415.43823218797
 21
5287.679966108493
 31
0.0
  0
LINE
  5
1C7F
330
18
100
AcDbEntity
  8
OBJECT
100
AcDbLine
 10
5434.188242183369
 20
5171.879957657093
 30
0.0
 11
5434.188242183369
 21
5287.679957657093
 31
0.0
  0
LINE
  5
1C80
330
18
100
AcDbEntity
  8
OBJECT
100
AcDbLine
 10
5436.688242183368
 20
5171.879957657093
 30
0.0
 11
5436.688242183368
 21
5287.679957657093
 31
0.0
  0
LINE
  5
1C81
330
18
100
AcDbEntity
  8
OBJECT
100
AcDbLine
 10
5417.938232187969
 20
5171.879966108492
 30
0.0
 11
5417.938232187969
 21
5287.679966108493
 31
0.0
  0
LINE
  5
1C82
330
18
100
AcDbEntity
  8
OBJECT
100
AcDbLine
 10
5586.688407240831
 20
4984.405419685024
 30
0.0
 11
5586.688407240831
 21
5044.079947033069
 31
0.0
  0
LINE
  5
1C83
330
18
100
AcDbEntity
  8
OBJECT
100
AcDbLine
 10
5584.188407240832
 20
4981.905419685023
 30
0.0
 11
5584.188407240832
 21
5044.079947033069
 31
0.0
  0
LINE
  5
1C84
330
18
100
AcDbEntity
  8
OBJECT
100
AcDbLine
 10
5602.938427873015
 20
5000.655440317206
 30
0.0
 11
5602.938427873015
 21
5044.079955484469
 31
0.0
  0
LINE
  5
1C85
330
18
100
AcDbEntity
  8
OBJECT
100
AcDbLine
 10
5605.438427873014
 20
5003.155440317207
 30
0.0
 11
5605.438427873014
 21
5044.079955484469
 31
0.0
  0
LINE
  5
1C86
330
18
100
AcDbEntity
  8
OBJECT
100
AcDbLine
 10
5642.93846913738
 20
5040.655481581572
 30
0.0
 11
5642.93846913738
 21
5044.079963935868
 31
0.0
  0
LINE
  5
1C87
330
18
100
AcDbEntity
  8
OBJECT
100
AcDbLine
 10
5640.438469137381
 20
5038.155481581572
 30
0.0
 11
5640.438469137381
 21
5044.079963935868
 31
0.0
  0
LINE
  5
1C88
330
18
100
AcDbEntity
  8
OBJECT
100
AcDbLine
 10
5621.688448505198
 20
5019.405460949389
 30
0.0
 11
5621.688448505198
 21
5044.079955484469
 31
0.0
  0
LINE
  5
1C89
330
18
100
AcDbEntity
  8
OBJECT
100
AcDbLine
 10
5624.188448505197
 20
5021.90546094939
 30
0.0
 11
5624.188448505197
 21
5044.079955484469
 31
0.0
  0
LINE
  5
1C95
330
18
100
AcDbEntity
  8
OBJECT
100
AcDbLine
 10
5511.6883247121
 20
4928.279955484469
 30
0.0
 11
5511.6883247121
 21
5044.079955484469
 31
0.0
  0
LINE
  5
1C96
330
18
100
AcDbEntity
  8
OBJECT
100
AcDbLine
 10
5509.1883247121
 20
4928.279955484469
 30
0.0
 11
5509.1883247121
 21
5044.079955484469
 31
0.0
  0
LINE
  5
1C97
330
18
100
AcDbEntity
  8
OBJECT
100
AcDbLine
 10
5527.938345344283
 20
4928.279963935868
 30
0.0
 11
5527.938345344283
 21
5044.079963935868
 31
0.0
  0
LINE
  5
1C98
330
18
100
AcDbEntity
  8
OBJECT
100
AcDbLine
 10
5530.438345344283
 20
4928.279963935868
 30
0.0
 11
5530.438345344283
 21
5044.079963935868
 31
0.0
  0
LINE
  5
1C99
330
18
100
AcDbEntity
  8
OBJECT
100
AcDbLine
 10
5567.938386608648
 20
4965.655399052841
 30
0.0
 11
5567.938386608648
 21
5044.079972387268
 31
0.0
  0
LINE
  5
1C9A
330
18
100
AcDbEntity
  8
OBJECT
100
AcDbLine
 10
5565.438386608649
 20
4963.15539905284
 30
0.0
 11
5565.438386608649
 21
5044.079972387268
 31
0.0
  0
LINE
  5
1C9B
330
18
100
AcDbEntity
  8
OBJECT
100
AcDbLine
 10
5546.688365976466
 20
4944.405378420658
 30
0.0
 11
5546.688365976466
 21
5044.079963935868
 31
0.0
  0
LINE
  5
1C9C
330
18
100
AcDbEntity
  8
OBJECT
100
AcDbLine
 10
5549.188365976466
 20
4946.905378420658
 30
0.0
 11
5549.188365976466
 21
5044.079963935868
 31
0.0
  0
LINE
  5
1C9D
330
18
100
AcDbEntity
  8
OBJECT
100
AcDbLine
 10
5474.188283447734
 20
4928.279966108494
 30
0.0
 11
5474.188283447734
 21
5044.079966108495
 31
0.0
  0
LINE
  5
1C9E
330
18
100
AcDbEntity
  8
OBJECT
100
AcDbLine
 10
5471.688283447734
 20
4928.279966108494
 30
0.0
 11
5471.688283447734
 21
5044.079966108495
 31
0.0
  0
LINE
  5
1C9F
330
18
100
AcDbEntity
  8
OBJECT
100
AcDbLine
 10
5490.438304079917
 20
4928.279974559894
 30
0.0
 11
5490.438304079917
 21
5044.079974559894
 31
0.0
  0
LINE
  5
1CA0
330
18
100
AcDbEntity
  8
OBJECT
100
AcDbLine
 10
5492.938304079917
 20
4928.279974559894
 30
0.0
 11
5492.938304079917
 21
5044.079974559894
 31
0.0
  0
LINE
  5
1CA1
330
18
100
AcDbEntity
  8
OBJECT
100
AcDbLine
 10
5455.438262815551
 20
4928.279966108494
 30
0.0
 11
5455.438262815551
 21
5044.079966108495
 31
0.0
  0
LINE
  5
1CA2
330
18
100
AcDbEntity
  8
OBJECT
100
AcDbLine
 10
5452.938262815552
 20
4928.279966108494
 30
0.0
 11
5452.938262815552
 21
5044.079966108495
 31
0.0
  0
LINE
  5
1CA3
330
18
100
AcDbEntity
  8
OBJECT
100
AcDbLine
 10
5415.43823218797
 20
4928.279966108494
 30
0.0
 11
5415.43823218797
 21
5044.079966108495
 31
0.0
  0
LINE
  5
1CA4
330
18
100
AcDbEntity
  8
OBJECT
100
AcDbLine
 10
5434.188242183369
 20
4928.279957657094
 30
0.0
 11
5434.188242183369
 21
5044.079957657095
 31
0.0
  0
LINE
  5
1CA5
330
18
100
AcDbEntity
  8
OBJECT
100
AcDbLine
 10
5436.688242183368
 20
4928.279957657094
 30
0.0
 11
5436.688242183368
 21
5044.079957657095
 31
0.0
  0
LINE
  5
1CA6
330
18
100
AcDbEntity
  8
OBJECT
100
AcDbLine
 10
5417.938232187969
 20
4928.279966108494
 30
0.0
 11
5417.938232187969
 21
5044.079966108495
 31
0.0
  0
LINE
  5
1CA7
330
18
100
AcDbEntity
  8
OBJECT
100
AcDbLine
 10
5417.938232187969
 20
5165.879966108496
 30
0.0
 11
5417.938232187969
 21
5050.079966108494
 31
0.0
  0
LINE
  5
1CA8
330
18
100
AcDbEntity
  8
OBJECT
100
AcDbLine
 10
5436.688242183368
 20
5165.879974559896
 30
0.0
 11
5436.688242183368
 21
5050.079974559895
 31
0.0
  0
LINE
  5
1CA9
330
18
100
AcDbEntity
  8
OBJECT
100
AcDbLine
 10
5434.188242183369
 20
5165.879974559896
 30
0.0
 11
5434.188242183369
 21
5050.079974559895
 31
0.0
  0
LINE
  5
1CAA
330
18
100
AcDbEntity
  8
OBJECT
100
AcDbLine
 10
5415.43823218797
 20
5165.879966108496
 30
0.0
 11
5415.43823218797
 21
5050.079966108494
 31
0.0
  0
LINE
  5
1CAB
330
18
100
AcDbEntity
  8
OBJECT
100
AcDbLine
 10
5452.938262815552
 20
5165.879966108496
 30
0.0
 11
5452.938262815552
 21
5050.079966108494
 31
0.0
  0
LINE
  5
1CAC
330
18
100
AcDbEntity
  8
OBJECT
100
AcDbLine
 10
5455.438262815551
 20
5165.879966108496
 30
0.0
 11
5455.438262815551
 21
5050.079966108494
 31
0.0
  0
LINE
  5
1CAD
330
18
100
AcDbEntity
  8
OBJECT
100
AcDbLine
 10
5492.938304079917
 20
5165.879957657096
 30
0.0
 11
5492.938304079917
 21
5050.079957657096
 31
0.0
  0
LINE
  5
1CAE
330
18
100
AcDbEntity
  8
OBJECT
100
AcDbLine
 10
5490.438304079917
 20
5165.879957657096
 30
0.0
 11
5490.438304079917
 21
5050.079957657096
 31
0.0
  0
LINE
  5
1CAF
330
18
100
AcDbEntity
  8
OBJECT
100
AcDbLine
 10
5471.688283447734
 20
5165.879966108496
 30
0.0
 11
5471.688283447734
 21
5050.079966108494
 31
0.0
  0
LINE
  5
1CB0
330
18
100
AcDbEntity
  8
OBJECT
100
AcDbLine
 10
5474.188283447734
 20
5165.879966108496
 30
0.0
 11
5474.188283447734
 21
5050.079966108494
 31
0.0
  0
LINE
  5
1CB1
330
18
100
AcDbEntity
  8
OBJECT
100
AcDbLine
 10
5549.188365976466
 20
5165.879968281121
 30
0.0
 11
5549.188365976466
 21
5050.079968281121
 31
0.0
  0
LINE
  5
1CB2
330
18
100
AcDbEntity
  8
OBJECT
100
AcDbLine
 10
5546.688365976466
 20
5165.879968281121
 30
0.0
 11
5546.688365976466
 21
5050.079968281121
 31
0.0
  0
LINE
  5
1CB3
330
18
100
AcDbEntity
  8
OBJECT
100
AcDbLine
 10
5565.438386608649
 20
5165.879959829722
 30
0.0
 11
5565.438386608649
 21
5050.079959829722
 31
0.0
  0
LINE
  5
1CB4
330
18
100
AcDbEntity
  8
OBJECT
100
AcDbLine
 10
5567.938386608648
 20
5165.879959829722
 30
0.0
 11
5567.938386608648
 21
5050.079959829722
 31
0.0
  0
LINE
  5
1CB5
330
18
100
AcDbEntity
  8
OBJECT
100
AcDbLine
 10
5530.438345344283
 20
5165.879968281121
 30
0.0
 11
5530.438345344283
 21
5050.079968281121
 31
0.0
  0
LINE
  5
1CB6
330
18
100
AcDbEntity
  8
OBJECT
100
AcDbLine
 10
5527.938345344283
 20
5165.879968281121
 30
0.0
 11
5527.938345344283
 21
5050.079968281121
 31
0.0
  0
LINE
  5
1CB7
330
18
100
AcDbEntity
  8
OBJECT
100
AcDbLine
 10
5509.1883247121
 20
5165.87997673252
 30
0.0
 11
5509.1883247121
 21
5050.07997673252
 31
0.0
  0
LINE
  5
1CB8
330
18
100
AcDbEntity
  8
OBJECT
100
AcDbLine
 10
5511.6883247121
 20
5165.87997673252
 30
0.0
 11
5511.6883247121
 21
5050.07997673252
 31
0.0
  0
LINE
  5
1CB9
330
18
100
AcDbEntity
  8
OBJECT
100
AcDbLine
 10
5677.938510401746
 20
5165.879978905147
 30
0.0
 11
5677.938510401746
 21
5075.655522845938
 31
0.0
  0
LINE
  5
1CBA
330
18
100
AcDbEntity
  8
OBJECT
100
AcDbLine
 10
5680.438510401746
 20
5165.879978905147
 30
0.0
 11
5680.438510401746
 21
5078.155522845938
 31
0.0
  0
LINE
  5
1CBB
330
18
100
AcDbEntity
  8
OBJECT
100
AcDbLine
 10
5717.938551666112
 20
5165.879970453747
 30
0.0
 11
5717.938551666112
 21
5115.655564110304
 31
0.0
  0
LINE
  5
1CBC
330
18
100
AcDbEntity
  8
OBJECT
100
AcDbLine
 10
5715.438551666112
 20
5165.879970453747
 30
0.0
 11
5715.438551666112
 21
5113.155564110304
 31
0.0
  0
LINE
  5
1CBD
330
18
100
AcDbEntity
  8
OBJECT
100
AcDbLine
 10
5696.688531033929
 20
5165.879978905147
 30
0.0
 11
5696.688531033929
 21
5094.405543478121
 31
0.0
  0
LINE
  5
1CBE
330
18
100
AcDbEntity
  8
OBJECT
100
AcDbLine
 10
5699.188531033929
 20
5165.879978905147
 30
0.0
 11
5699.188531033929
 21
5096.905543478121
 31
0.0
  0
LINE
  5
1CBF
330
18
100
AcDbEntity
  8
OBJECT
100
AcDbLine
 10
5752.938592930478
 20
5165.87997673252
 30
0.0
 11
5752.938592930478
 21
5150.655605374669
 31
0.0
  0
LINE
  5
1CC0
330
18
100
AcDbEntity
  8
OBJECT
100
AcDbLine
 10
5734.188572298295
 20
5165.879985183921
 30
0.0
 11
5734.188572298295
 21
5131.905584742487
 31
0.0
  0
LINE
  5
1CC1
330
18
100
AcDbEntity
  8
OBJECT
100
AcDbLine
 10
5736.688572298294
 20
5165.879985183921
 30
0.0
 11
5736.688572298294
 21
5134.405584742487
 31
0.0
  0
LINE
  5
1CC2
330
18
100
AcDbEntity
  8
OBJECT
100
AcDbLine
 10
5661.688489769563
 20
5165.879987356547
 30
0.0
 11
5661.688489769563
 21
5059.405502213755
 31
0.0
  0
LINE
  5
1CC3
330
18
100
AcDbEntity
  8
OBJECT
100
AcDbLine
 10
5659.188489769563
 20
5165.879987356547
 30
0.0
 11
5659.188489769563
 21
5056.905502213755
 31
0.0
  0
LINE
  5
1CC4
330
18
100
AcDbEntity
  8
OBJECT
100
AcDbLine
 10
5624.188448505197
 20
5165.87997673252
 30
0.0
 11
5624.188448505197
 21
5050.07997673252
 31
0.0
  0
LINE
  5
1CC5
330
18
100
AcDbEntity
  8
OBJECT
100
AcDbLine
 10
5621.688448505198
 20
5165.87997673252
 30
0.0
 11
5621.688448505198
 21
5050.07997673252
 31
0.0
  0
LINE
  5
1CC6
330
18
100
AcDbEntity
  8
OBJECT
100
AcDbLine
 10
5640.438469137381
 20
5165.879968281121
 30
0.0
 11
5640.438469137381
 21
5050.079968281121
 31
0.0
  0
LINE
  5
1CC7
330
18
100
AcDbEntity
  8
OBJECT
100
AcDbLine
 10
5642.93846913738
 20
5165.879968281121
 30
0.0
 11
5642.93846913738
 21
5050.079968281121
 31
0.0
  0
LINE
  5
1CC8
330
18
100
AcDbEntity
  8
OBJECT
100
AcDbLine
 10
5605.438427873014
 20
5165.87997673252
 30
0.0
 11
5605.438427873014
 21
5050.07997673252
 31
0.0
  0
LINE
  5
1CC9
330
18
100
AcDbEntity
  8
OBJECT
100
AcDbLine
 10
5602.938427873015
 20
5165.87997673252
 30
0.0
 11
5602.938427873015
 21
5050.07997673252
 31
0.0
  0
LINE
  5
1CCA
330
18
100
AcDbEntity
  8
OBJECT
100
AcDbLine
 10
5584.188407240832
 20
5165.879985183921
 30
0.0
 11
5584.188407240832
 21
5050.07998518392
 31
0.0
  0
LINE
  5
1CCB
330
18
100
AcDbEntity
  8
OBJECT
100
AcDbLine
 10
5586.688407240831
 20
5165.879985183921
 30
0.0
 11
5586.688407240831
 21
5050.07998518392
 31
0.0
  0
LINE
  5
1CCC
330
18
100
AcDbEntity
  8
OBJECT
100
AcDbLine
 10
5417.938232187969
 20
4922.279966108497
 30
0.0
 11
5417.938232187969
 21
4815.655244632161
 31
0.0
  0
LINE
  5
1CCD
330
18
100
AcDbEntity
  8
OBJECT
100
AcDbLine
 10
5436.688242183368
 20
4922.279974559897
 30
0.0
 11
5436.688242183368
 21
4834.405254627561
 31
0.0
  0
LINE
  5
1CCE
330
18
100
AcDbEntity
  8
OBJECT
100
AcDbLine
 10
5434.188242183369
 20
4922.279974559897
 30
0.0
 11
5434.188242183369
 21
4831.90525462756
 31
0.0
  0
LINE
  5
1CCF
330
18
100
AcDbEntity
  8
OBJECT
100
AcDbLine
 10
5415.43823218797
 20
4922.279966108497
 30
0.0
 11
5415.43823218797
 21
4813.155244632161
 31
0.0
  0
LINE
  5
1CD0
330
18
100
AcDbEntity
  8
OBJECT
100
AcDbLine
 10
5452.938262815552
 20
4922.279966108497
 30
0.0
 11
5452.938262815552
 21
4850.655275259743
 31
0.0
  0
LINE
  5
1CD1
330
18
100
AcDbEntity
  8
OBJECT
100
AcDbLine
 10
5455.438262815551
 20
4922.279966108497
 30
0.0
 11
5455.438262815551
 21
4853.155275259743
 31
0.0
  0
LINE
  5
1CD2
330
18
100
AcDbEntity
  8
OBJECT
100
AcDbLine
 10
5492.938304079917
 20
4922.279957657097
 30
0.0
 11
5492.938304079917
 21
4890.655316524109
 31
0.0
  0
LINE
  5
1CD3
330
18
100
AcDbEntity
  8
OBJECT
100
AcDbLine
 10
5490.438304079917
 20
4922.279957657097
 30
0.0
 11
5490.438304079917
 21
4888.155316524109
 31
0.0
  0
LINE
  5
1CD4
330
18
100
AcDbEntity
  8
OBJECT
100
AcDbLine
 10
5471.688283447734
 20
4922.279966108497
 30
0.0
 11
5471.688283447734
 21
4869.405295891926
 31
0.0
  0
LINE
  5
1CD5
330
18
100
AcDbEntity
  8
OBJECT
100
AcDbLine
 10
5474.188283447734
 20
4922.279966108497
 30
0.0
 11
5474.188283447734
 21
4871.905295891926
 31
0.0
  0
LINE
  5
1CDC
330
18
100
AcDbEntity
  8
OBJECT
100
AcDbLine
 10
5509.1883247121
 20
4922.279976732522
 30
0.0
 11
5509.1883247121
 21
4906.905337156292
 31
0.0
  0
LINE
  5
1CDD
330
18
100
AcDbEntity
  8
OBJECT
100
AcDbLine
 10
5511.6883247121
 20
4922.279976732522
 30
0.0
 11
5511.6883247121
 21
4909.405337156292
 31
0.0
  0
LINE
  5
1D28
330
18
100
AcDbEntity
  8
OBJECT
100
AcDbLine
 10
5755.438592930477
 20
5165.87997673252
 30
0.0
 11
5755.438592930477
 21
5153.15560537467
 31
0.0
  0
LINE
  5
1DDF
330
18
100
AcDbEntity
  8
OBJECT
100
AcDbLine
 10
5399.162953664299
 20
5774.87996610849
 30
0.0
 11
5399.162953664299
 21
4796.87996610849
 31
0.0
  0
LINE
  5
1DE0
330
18
100
AcDbEntity
  8
OBJECT
100
AcDbLine
 10
5393.162953664298
 20
5780.87996610849
 30
0.0
 11
5393.162953664298
 21
4790.87996610849
 31
0.0
  0
LINE
  5
248A
330
18
100
AcDbEntity
  8
OBJECT
100
AcDbLine
 10
5288.162953664299
 20
4585.87996610849
 30
0.0
 11
5288.162953664299
 21
3585.87996610849
 31
0.0
  0
LINE
  5
248B
330
18
100
AcDbEntity
  8
OBJECT
100
AcDbLine
 10
5288.162953664299
 20
3585.87996610849
 30
0.0
 11
6488.162953664299
 21
3585.87996610849
 31
0.0
  0
LINE
  5
248C
330
18
100
AcDbEntity
  8
OBJECT
100
AcDbLine
 10
6488.162953664299
 20
3585.87996610849
 30
0.0
 11
6488.162953664299
 21
4585.87996610849
 31
0.0
  0
LINE
  5
248D
330
18
100
AcDbEntity
  8
OBJECT
100
AcDbLine
 10
6488.162953664299
 20
4585.87996610849
 30
0.0
 11
5288.162953664299
 21
4585.87996610849
 31
0.0
  0
LINE
  5
248E
330
18
100
AcDbEntity
  8
点線
100
AcDbLine
 10
5388.162953664298
 20
4585.87996610849
 30
0.0
 11
5388.162953664298
 21
4535.87996610849
 31
0.0
  0
LINE
  5
248F
330
18
100
AcDbEntity
  8
点線
100
AcDbLine
 10
5388.162953664298
 20
4535.87996610849
 30
0.0
 11
6388.162953664298
 21
4535.87996610849
 31
0.0
  0
LINE
  5
2490
330
18
100
AcDbEntity
  8
点線
100
AcDbLine
 10
6388.162953664298
 20
4535.87996610849
 30
0.0
 11
6388.162953664298
 21
4585.87996610849
 31
0.0
  0
LINE
  5
2491
330
18
100
AcDbEntity
  8
点線
100
AcDbLine
 10
5438.162953664299
 20
4535.87996610849
 30
0.0
 11
5438.162953664299
 21
3585.87996610849
 31
0.0
  0
LINE
  5
2492
330
18
100
AcDbEntity
  8
点線
100
AcDbLine
 10
6338.162953664299
 20
4535.87996610849
 30
0.0
 11
6338.162953664299
 21
3585.87996610849
 31
0.0
  0
MTEXT
  5
25C7
330
18
100
AcDbEntity
  8
上書線
100
AcDbMText
 10
8118.926764445321
 20
4843.535236994284
 30
0.0
 40
50.0
 41
1096.913
 71
     1
 72
     5
  1
1100
 73
     1
 44
1.0
  0
LINE
  5
25C8
330
18
100
AcDbEntity
  8
上書線
100
AcDbLine
 10
8378.970201097933
 20
5989.462468121255
 30
0.0
 11
8378.970201097933
 21
4169.462468121254
 31
0.0
  0
LINE
  5
25C9
330
18
100
AcDbEntity
  8
上書線
100
AcDbLine
 10
8773.895446430302
 20
5989.462468121255
 30
0.0
 11
8773.895446430302
 21
4169.462468121254
 31
0.0
  0
LINE
  5
25CA
330
18
100
AcDbEntity
  8
上書線
100
AcDbLine
 10
8022.473934461759
 20
5989.462468121255
 30
0.0
 11
8022.473934461759
 21
4169.462468121254
 31
0.0
  0
MTEXT
  5
25CB
330
18
100
AcDbEntity
  8
上書線
100
AcDbMText
 10
8118.926764445321
 20
4243.535236994284
 30
0.0
 40
50.0
 41
1096.913
 71
     1
 72
     5
  1
1400
 73
     1
 44
1.0
  0
MTEXT
  5
25CC
330
18
100
AcDbEntity
  8
上書線
100
AcDbMText
 10
8118.926764445321
 20
4343.535236994283
 30
0.0
 40
50.0
 41
1096.913
 71
     1
 72
     5
  1
1350
 73
     1
 44
1.0
  0
MTEXT
  5
25CD
330
18
100
AcDbEntity
  8
上書線
100
AcDbMText
 10
8118.926764445321
 20
4443.535236994284
 30
0.0
 40
50.0
 41
1096.913
 71
     1
 72
     5
  1
1300
 73
     1
 44
1.0
  0
MTEXT
  5
25CE
330
18
100
AcDbEntity
  8
上書線
100
AcDbMText
 10
8118.926764445321
 20
4543.535236994284
 30
0.0
 40
50.0
 41
1096.913
 71
     1
 72
     5
  1
1250
 73
     1
 44
1.0
  0
MTEXT
  5
25CF
330
18
100
AcDbEntity
  8
上書線
100
AcDbMText
 10
8118.926764445321
 20
4643.535236994284
 30
0.0
 40
50.0
 41
1096.913
 71
     1
 72
     5
  1
1200
 73
     1
 44
1.0
  0
MTEXT
  5
25D0
330
18
100
AcDbEntity
  8
上書線
100
AcDbMText
 10
8118.926764445321
 20
4743.535236994284
 30
0.0
 40
50.0
 41
1096.913
 71
     1
 72
     5
  1
1150
 73
     1
 44
1.0
  0
LINE
  5
25D1
330
18
100
AcDbEntity
  8
上書線
100
AcDbLine
 10
8773.895446430302
 20
4269.462468121254
 30
0.0
 11
8022.473934461759
 21
4269.462468121254
 31
0.0
  0
LINE
  5
25D2
330
18
100
AcDbEntity
  8
上書線
100
AcDbLine
 10
8773.895446430302
 20
4369.462468121255
 30
0.0
 11
8022.473934461759
 21
4369.462468121255
 31
0.0
  0
LINE
  5
25D3
330
18
100
AcDbEntity
  8
上書線
100
AcDbLine
 10
8773.895446430302
 20
4469.462468121254
 30
0.0
 11
8022.473934461759
 21
4469.462468121254
 31
0.0
  0
LINE
  5
25D4
330
18
100
AcDbEntity
  8
上書線
100
AcDbLine
 10
8773.895446430302
 20
4569.462468121254
 30
0.0
 11
8022.473934461759
 21
4569.462468121254
 31
0.0
  0
LINE
  5
25D5
330
18
100
AcDbEntity
  8
上書線
100
AcDbLine
 10
8773.895446430302
 20
4669.462468121254
 30
0.0
 11
8022.473934461759
 21
4669.462468121254
 31
0.0
  0
LINE
  5
25D6
330
18
100
AcDbEntity
  8
上書線
100
AcDbLine
 10
8773.895446430302
 20
4769.462468121254
 30
0.0
 11
8022.473934461759
 21
4769.462468121254
 31
0.0
  0
LINE
  5
25D7
330
18
100
AcDbEntity
  8
上書線
100
AcDbLine
 10
8773.895446430302
 20
4169.462468121254
 30
0.0
 11
8022.473934461759
 21
4169.462468121254
 31
0.0
  0
MTEXT
  5
25D8
330
18
100
AcDbEntity
  8
上書線
100
AcDbMText
 10
8494.25659880149
 20
4349.173664818857
 30
0.0
 40
50.0
 41
1096.913
 71
     1
 72
     5
  1
2095
 73
     1
 44
1.0
  0
MTEXT
  5
25D9
330
18
100
AcDbEntity
  8
上書線
100
AcDbMText
 10
8494.25659880149
 20
4249.173664818857
 30
0.0
 40
50.0
 41
1096.913
 71
     1
 72
     5
  1
2174
 73
     1
 44
1.0
  0
MTEXT
  5
25DA
330
18
100
AcDbEntity
  8
上書線
100
AcDbMText
 10
8494.25659880149
 20
4449.173664818856
 30
0.0
 40
50.0
 41
1096.913
 71
     1
 72
     5
  1
2016
 73
     1
 44
1.0
  0
MTEXT
  5
25DB
330
18
100
AcDbEntity
  8
上書線
100
AcDbMText
 10
8494.25659880149
 20
4549.173664818857
 30
0.0
 40
50.0
 41
1096.913
 71
     1
 72
     5
  1
1937
 73
     1
 44
1.0
  0
MTEXT
  5
25DE
330
18
100
AcDbEntity
  8
上書線
100
AcDbMText
 10
8118.926764445321
 20
4943.535236994284
 30
0.0
 40
50.0
 41
1096.913
 71
     1
 72
     5
  1
1050
 73
     1
 44
1.0
  0
MTEXT
  5
25DF
330
18
100
AcDbEntity
  8
上書線
100
AcDbMText
 10
8118.926764445321
 20
5043.535236994284
 30
0.0
 40
50.0
 41
1096.913
 71
     1
 72
     5
  1
1000
 73
     1
 44
1.0
  0
MTEXT
  5
25E0
330
18
100
AcDbEntity
  8
上書線
100
AcDbMText
 10
8150.536730224919
 20
5143.535236994284
 30
0.0
 40
50.0
 41
1096.913
 71
     1
 72
     5
  1
950
 73
     1
 44
1.0
  0
MTEXT
  5
25E1
330
18
100
AcDbEntity
  8
上書線
100
AcDbMText
 10
8150.536730224919
 20
5243.535236994284
 30
0.0
 40
50.0
 41
1096.913
 71
     1
 72
     5
  1
900
 73
     1
 44
1.0
  0
MTEXT
  5
25E2
330
18
100
AcDbEntity
  8
上書線
100
AcDbMText
 10
8150.536730224919
 20
5343.535236994284
 30
0.0
 40
50.0
 41
1096.913
 71
     1
 72
     5
  1
850
 73
     1
 44
1.0
  0
MTEXT
  5
25E3
330
18
100
AcDbEntity
  8
上書線
100
AcDbMText
 10
8150.536730224919
 20
5443.535236994284
 30
0.0
 40
50.0
 41
1096.913
 71
     1
 72
     5
  1
800
 73
     1
 44
1.0
  0
MTEXT
  5
25E4
330
18
100
AcDbEntity
  8
上書線
100
AcDbMText
 10
8150.536730224919
 20
5543.535236994284
 30
0.0
 40
50.0
 41
1096.913
 71
     1
 72
     5
  1
750
 73
     1
 44
1.0
  0
MTEXT
  5
25E5
330
18
100
AcDbEntity
  8
上書線
100
AcDbMText
 10
8150.536730224919
 20
5643.535236994284
 30
0.0
 40
50.0
 41
1096.913
 71
     1
 72
     5
  1
700
 73
     1
 44
1.0
  0
MTEXT
  5
25E6
330
18
100
AcDbEntity
  8
上書線
100
AcDbMText
 10
8150.536730224919
 20
5743.535236994284
 30
0.0
 40
50.0
 41
1096.913
 71
     1
 72
     5
  1
650
 73
     1
 44
1.0
  0
MTEXT
  5
25E7
330
18
100
AcDbEntity
  8
上書線
100
AcDbMText
 10
8150.536730224919
 20
5843.535236994284
 30
0.0
 40
50.0
 41
1096.913
 71
     1
 72
     5
  1
600
 73
     1
 44
1.0
  0
LINE
  5
25E8
330
18
100
AcDbEntity
  8
上書線
100
AcDbLine
 10
8773.895446430302
 20
4869.462468121255
 30
0.0
 11
8022.473934461759
 21
4869.462468121255
 31
0.0
  0
LINE
  5
25E9
330
18
100
AcDbEntity
  8
上書線
100
AcDbLine
 10
8773.895446430302
 20
4969.462468121254
 30
0.0
 11
8022.473934461759
 21
4969.462468121254
 31
0.0
  0
LINE
  5
25EA
330
18
100
AcDbEntity
  8
上書線
100
AcDbLine
 10
8773.895446430302
 20
5069.462468121255
 30
0.0
 11
8022.473934461759
 21
5069.462468121255
 31
0.0
  0
LINE
  5
25EB
330
18
100
AcDbEntity
  8
上書線
100
AcDbLine
 10
8773.895446430302
 20
5169.462468121254
 30
0.0
 11
8022.473934461759
 21
5169.462468121254
 31
0.0
  0
LINE
  5
25EC
330
18
100
AcDbEntity
  8
上書線
100
AcDbLine
 10
8773.895446430302
 20
5269.462468121254
 30
0.0
 11
8022.473934461759
 21
5269.462468121254
 31
0.0
  0
LINE
  5
25ED
330
18
100
AcDbEntity
  8
上書線
100
AcDbLine
 10
8773.895446430302
 20
5369.462468121255
 30
0.0
 11
8022.473934461759
 21
5369.462468121255
 31
0.0
  0
LINE
  5
25EE
330
18
100
AcDbEntity
  8
上書線
100
AcDbLine
 10
8773.895446430302
 20
5469.462468121254
 30
0.0
 11
8022.473934461759
 21
5469.462468121254
 31
0.0
  0
LINE
  5
25EF
330
18
100
AcDbEntity
  8
上書線
100
AcDbLine
 10
8773.895446430302
 20
5569.462468121255
 30
0.0
 11
8022.473934461759
 21
5569.462468121255
 31
0.0
  0
LINE
  5
25F0
330
18
100
AcDbEntity
  8
上書線
100
AcDbLine
 10
8773.895446430302
 20
5669.462468121254
 30
0.0
 11
8022.473934461759
 21
5669.462468121254
 31
0.0
  0
LINE
  5
25F1
330
18
100
AcDbEntity
  8
上書線
100
AcDbLine
 10
8773.895446430302
 20
5769.462468121254
 30
0.0
 11
8022.473934461759
 21
5769.462468121254
 31
0.0
  0
LINE
  5
25F2
330
18
100
AcDbEntity
  8
上書線
100
AcDbLine
 10
8773.895446430302
 20
5869.462468121255
 30
0.0
 11
8022.473934461759
 21
5869.462468121255
 31
0.0
  0
LINE
  5
25F3
330
18
100
AcDbEntity
  8
上書線
100
AcDbLine
 10
8773.895446430302
 20
5989.462468121255
 30
0.0
 11
8022.473934461759
 21
5989.462468121255
 31
0.0
  0
MTEXT
  5
25F4
330
18
100
AcDbEntity
  8
上書線
100
AcDbMText
 10
8197.93863831094
 20
5960.241818659676
 30
0.0
 40
50.0
 41
1096.913
 71
     1
 72
     5
  1
(㎜）
 73
     1
 44
1.0
  0
MTEXT
  5
25F5
330
18
100
AcDbEntity
  8
上書線
100
AcDbMText
 10
8102.402456851953
 20
5955.786194102288
 30
0.0
 40
50.0
 41
1096.913
 71
     1
 72
     5
  1
H
 73
     1
 44
1.0
  0
MTEXT
  5
25F6
330
18
100
AcDbEntity
  8
上書線
100
AcDbMText
 10
8526.88228821926
 20
5849.173664818857
 30
0.0
 40
50.0
 41
1096.913
 71
     1
 72
     5
  1
914
 73
     1
 44
1.0
  0
MTEXT
  5
25FF
330
18
100
AcDbEntity
  8
上書線
100
AcDbMText
 10
8526.88228821926
 20
5749.173664818857
 30
0.0
 40
50.0
 41
1096.913
 71
     1
 72
     5
  1
992
 73
     1
 44
1.0
  0
MTEXT
  5
2600
330
18
100
AcDbEntity
  8
上書線
100
AcDbMText
 10
8244.718043558981
 20
6142.27145449414
 30
0.0
 40
60.0
 41
1096.913
 71
     1
 72
     5
  1
重量表
 73
     1
 44
1.0
  0
MTEXT
  5
2601
330
18
100
AcDbEntity
  8
上書線
100
AcDbMText
 10
8425.280602229101
 20
5960.241818659676
 30
0.0
 40
50.0
 41
1096.913
 71
     1
 72
     5
  1
重量
 73
     1
 44
1.0
  0
MTEXT
  5
2602
330
18
100
AcDbEntity
  8
上書線
100
AcDbMText
 10
8614.776368825213
 20
5960.241818659676
 30
0.0
 40
50.0
 41
1096.913
 71
     1
 72
     5
  1
(㎏）
 73
     1
 44
1.0
  0
LINE
  5
2632
330
18
100
AcDbEntity
  8
点線
100
AcDbLine
 10
5438.162953664299
 20
5735.87996610849
 30
0.0
 11
5438.162953664299
 21
4835.87996610849
 31
0.0
  0
LINE
  5
2633
102
{ACAD_REACTORS
330
263F
102
}
330
18
100
AcDbEntity
  8
OBJECT
100
AcDbLine
 10
5438.162953664299
 20
4835.87996610849
 30
0.0
 11
6338.162953664299
 21
4835.87996610849
 31
0.0
  0
LINE
  5
2634
102
{ACAD_REACTORS
330
263F
102
}
330
18
100
AcDbEntity
  8
OBJECT
100
AcDbLine
 10
6338.162953664299
 20
4835.87996610849
 30
0.0
 11
6338.162953664299
 21
5735.87996610849
 31
0.0
  0
LINE
  5
2635
330
18
100
AcDbEntity
  8
点線
100
AcDbLine
 10
6338.162953664299
 20
5735.87996610849
 30
0.0
 11
5438.162953664299
 21
5735.87996610849
 31
0.0
  0
LINE
  5
2636
102
{ACAD_REACTORS
330
2640
102
}
330
18
100
AcDbEntity
  8
OBJECT
100
AcDbLine
 10
5388.162953664298
 20
5785.87996610849
 30
0.0
 11
5388.162953664298
 21
4785.87996610849
 31
0.0
  0
LINE
  5
2637
102
{ACAD_REACTORS
330
263F
102
}
330
18
100
AcDbEntity
  8
OBJECT
100
AcDbLine
 10
5388.162953664298
 20
4785.87996610849
 30
0.0
 11
6388.162953664298
 21
4785.87996610849
 31
0.0
  0
LINE
  5
2638
102
{ACAD_REACTORS
330
263F
102
}
330
18
100
AcDbEntity
  8
OBJECT
100
AcDbLine
 10
6388.162953664298
 20
4785.87996610849
 30
0.0
 11
6388.162953664298
 21
5785.87996610849
 31
0.0
  0
LINE
  5
2639
102
{ACAD_REACTORS
330
2640
102
}
330
18
100
AcDbEntity
  8
OBJECT
100
AcDbLine
 10
6388.162953664298
 20
5785.87996610849
 30
0.0
 11
5388.162953664298
 21
5785.87996610849
 31
0.0
  0
LINE
  5
263B
102
{ACAD_REACTORS
330
2640
102
}
330
18
100
AcDbEntity
  8
OBJECT
100
AcDbLine
 10
6388.162953664298
 20
5785.87996610849
 30
0.0
 11
5388.162953664298
 21
4785.87996610849
 31
0.0
  0
LINE
  5
263C
102
{ACAD_REACTORS
330
263F
102
}
330
18
100
AcDbEntity
  8
OBJECT
100
AcDbLine
 10
6388.162953664298
 20
5785.87996610849
 30
0.0
 11
6338.162953664299
 21
5735.87996610849
 31
0.0
  0
LINE
  5
263E
102
{ACAD_REACTORS
330
263F
102
}
330
18
100
AcDbEntity
  8
OBJECT
100
AcDbLine
 10
5438.162953664299
 20
4835.87996610849
 30
0.0
 11
5388.162953664298
 21
4785.87996610849
 31
0.0
  0
HATCH
  5
263F
330
18
100
AcDbEntity
  8
OBJECT
100
AcDbHatch
 10
0.0
 20
0.0
 30
0.0
210
0.0
220
0.0
230
1.0
  2
AR-SAND
 70
     0
 71
     1
 91
        1
 92
        1
 93
        6
 72
     1
 10
5388.162953664298
 20
4785.87996610849
 11
6388.162953664298
 21
4785.87996610849
 72
     1
 10
6388.162953664298
 20
4785.87996610849
 11
6388.162953664298
 21
5785.87996610849
 72
     1
 10
6388.162953664298
 20
5785.87996610849
 11
6338.162953664299
 21
5735.87996610849
 72
     1
 10
6338.162953664299
 20
5735.87996610849
 11
6338.162953664299
 21
4835.87996610849
 72
     1
 10
6338.162953664299
 20
4835.87996610849
 11
5438.162953664299
 21
4835.87996610849
 72
     1
 10
5438.162953664299
 20
4835.87996610849
 11
5388.162953664298
 21
4785.87996610849
 97
        6
330
2637
330
2638
330
263C
330
2634
330
2633
330
263E
 75
     0
 76
     1
 52
0.0
 41
1.0
 77
     0
 78
     4
 53
37.5
 43
10725.10374411389
 44
0.4472970803381032
 45
-1.600031295984045
 46
48.94132373293423
 79
     6
 49
0.0
 49
-38.608
 49
0.0
 49
-43.18
 49
0.0
 49
-41.275
 53
7.499999999999999
 43
10725.10374411389
 44
0.4472970803381032
 45
44.95232831380026
 46
71.68251005683543
 79
     6
 49
0.0
 49
-20.828
 49
0.0
 49
-34.798
 49
0.0
 49
-13.335
 53
327.4999999999999
 43
10693.86174411389
 44
0.4472970803381032
 45
79.09923702414579
 46
0.1437184678545691
 79
     6
 49
0.0
 49
-12.7
 49
0.0
 49
-45.72
 49
0.0
 49
-59.69
 53
317.5
 43
10693.86174411389
 44
0.4472970803381032
 45
76.35564524722972
 46
22.29293232572162
 79
     6
 49
0.0
 49
-6.349999999999999
 49
0.0
 49
-29.97199999999999
 49
0.0
 49
-34.29
 98
        1
 10
10725.10374411389
 20
0.4472970803381032
  0
LINE
  5
2641
330
18
100
AcDbEntity
  8
OBJECT
100
AcDbLine
 10
5288.162953664299
 20
5885.87996610849
 30
0.0
 11
5288.162953664299
 21
4685.87996610849
 31
0.0
  0
LINE
  5
2642
330
18
100
AcDbEntity
  8
OBJECT
100
AcDbLine
 10
5288.162953664299
 20
4685.87996610849
 30
0.0
 11
6488.162953664299
 21
4685.87996610849
 31
0.0
  0
LINE
  5
2643
330
18
100
AcDbEntity
  8
OBJECT
100
AcDbLine
 10
6488.162953664299
 20
4685.87996610849
 30
0.0
 11
6488.162953664299
 21
5885.87996610849
 31
0.0
  0
LINE
  5
2644
330
18
100
AcDbEntity
  8
OBJECT
100
AcDbLine
 10
6488.162953664299
 20
5885.87996610849
 30
0.0
 11
5288.162953664299
 21
5885.87996610849
 31
0.0
  0
LINE
  5
264E
330
18
100
AcDbEntity
  8
OBJECT
100
AcDbLine
 10
7788.162953664299
 20
3585.87996610849
 30
0.0
 11
6588.162953664299
 21
3585.87996610849
 31
0.0
  0
LINE
  5
264F
330
18
100
AcDbEntity
  8
点線
100
AcDbLine
 10
7688.162953664299
 20
4535.87996610849
 30
0.0
 11
6688.162953664299
 21
4535.87996610849
 31
0.0
  0
LINE
  5
2650
330
18
100
AcDbEntity
  8
OBJECT
100
AcDbLine
 10
6588.162953664299
 20
4585.87996610849
 30
0.0
 11
7788.162953664299
 21
4585.87996610849
 31
0.0
  0
LINE
  5
2651
330
18
100
AcDbEntity
  8
OBJECT
100
AcDbLine
 10
7788.162953664299
 20
4585.87996610849
 30
0.0
 11
7788.162953664299
 21
3585.87996610849
 31
0.0
  0
LINE
  5
2652
330
18
100
AcDbEntity
  8
点線
100
AcDbLine
 10
7638.162953664298
 20
4535.87996610849
 30
0.0
 11
7638.162953664298
 21
3585.87996610849
 31
0.0
  0
LINE
  5
2653
330
18
100
AcDbEntity
  8
点線
100
AcDbLine
 10
7688.162953664299
 20
4585.87996610849
 30
0.0
 11
7688.162953664299
 21
4535.87996610849
 31
0.0
  0
LINE
  5
2654
330
18
100
AcDbEntity
  8
OBJECT
100
AcDbLine
 10
6588.162953664299
 20
3585.87996610849
 30
0.0
 11
6588.162953664299
 21
4585.87996610849
 31
0.0
  0
LINE
  5
2655
330
18
100
AcDbEntity
  8
点線
100
AcDbLine
 10
6738.162953664299
 20
4535.87996610849
 30
0.0
 11
6738.162953664299
 21
3585.87996610849
 31
0.0
  0
LINE
  5
2656
330
18
100
AcDbEntity
  8
点線
100
AcDbLine
 10
6688.162953664299
 20
4535.87996610849
 30
0.0
 11
6688.162953664299
 21
4585.87996610849
 31
0.0
  0
MTEXT
  5
268F
330
18
100
AcDbEntity
  8
上書線
100
AcDbMText
 10
8494.25659880149
 20
5349.173664818857
 30
0.0
 40
50.0
 41
1096.913
 71
     1
 72
     5
  1
1307
 73
     1
 44
1.0
  0
MTEXT
  5
2690
330
18
100
AcDbEntity
  8
上書線
100
AcDbMText
 10
8494.25659880149
 20
5649.173664818857
 30
0.0
 40
50.0
 41
1096.913
 71
     1
 72
     5
  1
1071
 73
     1
 44
1.0
  0
MTEXT
  5
2691
330
18
100
AcDbEntity
  8
上書線
100
AcDbMText
 10
8494.25659880149
 20
5549.173664818857
 30
0.0
 40
50.0
 41
1096.913
 71
     1
 72
     5
  1
1150
 73
     1
 44
1.0
  0
MTEXT
  5
2692
330
18
100
AcDbEntity
  8
上書線
100
AcDbMText
 10
8494.25659880149
 20
5449.173664818857
 30
0.0
 40
50.0
 41
1096.913
 71
     1
 72
     5
  1
1229
 73
     1
 44
1.0
  0
MTEXT
  5
26A0
330
18
100
AcDbEntity
  8
上書線
100
AcDbMText
 10
8494.25659880149
 20
4849.173664818857
 30
0.0
 40
50.0
 41
1096.913
 71
     1
 72
     5
  1
1701
 73
     1
 44
1.0
  0
MTEXT
  5
26A1
330
18
100
AcDbEntity
  8
上書線
100
AcDbMText
 10
8494.25659880149
 20
4749.173664818857
 30
0.0
 40
50.0
 41
1096.913
 71
     1
 72
     5
  1
1780
 73
     1
 44
1.0
  0
MTEXT
  5
26A2
330
18
100
AcDbEntity
  8
上書線
100
AcDbMText
 10
8494.25659880149
 20
4649.173664818857
 30
0.0
 40
50.0
 41
1096.913
 71
     1
 72
     5
  1
1859
 73
     1
 44
1.0
  0
MTEXT
  5
26AF
330
18
100
AcDbEntity
  8
上書線
100
AcDbMText
 10
8494.25659880149
 20
4949.173664818857
 30
0.0
 40
50.0
 41
1096.913
 71
     1
 72
     5
  1
1622
 73
     1
 44
1.0
  0
MTEXT
  5
26B0
330
18
100
AcDbEntity
  8
上書線
100
AcDbMText
 10
8494.25659880149
 20
5249.173664818857
 30
0.0
 40
50.0
 41
1096.913
 71
     1
 72
     5
  1
1386
 73
     1
 44
1.0
  0
MTEXT
  5
26B1
330
18
100
AcDbEntity
  8
上書線
100
AcDbMText
 10
8494.25659880149
 20
5149.173664818857
 30
0.0
 40
50.0
 41
1096.913
 71
     1
 72
     5
  1
1465
 73
     1
 44
1.0
  0
MTEXT
  5
26B2
330
18
100
AcDbEntity
  8
上書線
100
AcDbMText
 10
8494.25659880149
 20
5049.173664818857
 30
0.0
 40
50.0
 41
1096.913
 71
     1
 72
     5
  1
1544
 73
     1
 44
1.0
  0
LINE
  5
28F2
330
18
100
AcDbEntity
  8
WUWAGAKI
100
AcDbLine
 10
4826.03667648855
 20
3471.186551246838
 30
0.0
 11
9096.755595115467
 21
3471.186551246838
 31
0.0
  0
LINE
  5
28F3
330
18
100
AcDbEntity
  8
WUWAGAKI
100
AcDbLine
 10
9096.755595115467
 20
6397.336403042962
 30
0.0
 11
4826.03667648855
 21
6397.336403042962
 31
0.0
  0
SOLID
  5
28FA
330
18
100
AcDbEntity
  8
0
  6
ByBlock
 62
     0
 48
10.0
100
AcDbTrace
 10
5871.349001691445
 20
5223.042037991348
 30
0.0
 11
5866.397495419193
 21
5211.564556314787
 31
0.0
 12
5834.440803525627
 22
5232.157815969818
 32
0.0
 13
5834.440803525627
 23
5232.157815969818
 33
0.0
  0
LINE
  5
28FB
330
18
100
AcDbEntity
  8
WUWAGAKI
 48
10.0
100
AcDbLine
 10
5834.440803525627
 20
5232.157815969818
 30
0.0
 11
6623.21276605858
 21
4896.581303698476
 31
0.0
210
0.0
220
0.0
230
-1.0
1001
ACAD
1000
DSTYLE
1002
{
1070
    78
1070
     8
1070
   270
1070
     8
1070
   140
1040
2.5
1070
    74
1070
     0
1070
   172
1070
     1
1070
    73
1070
     0
1070
    77
1070
     1
1070
    40
1040
10.0
1070
   147
1040
0.625
1070
    42
1040
0.625
1070
    44
1040
1.25
1070
    43
1040
3.75
1070
   141
1040
2.5
1070
    41
1040
2.5
1070
   273
1070
     8
1070
   274
1070
     4
1070
   143
1040
0.0394
1070
   171
1070
     4
1002
}
  0
LINE
  5
28FC
330
18
100
AcDbEntity
  8
WUWAGAKI
100
AcDbLine
 10
4826.03667648855
 20
6397.336403042962
 30
0.0
 11
4826.03667648855
 21
3471.186551246838
 31
0.0
  0
LINE
  5
2936
330
18
100
AcDbEntity
  8
0
 48
10.0
100
AcDbLine
 10
5258.162953664299
 20
4585.87996610849
 30
0.0
 11
4928.162953664299
 21
4585.87996610849
 31
0.0
  0
LINE
  5
2937
330
18
100
AcDbEntity
  8
0
 48
10.0
100
AcDbLine
 10
5258.162953664299
 20
3585.87996610849
 30
0.0
 11
4928.162953664299
 21
3585.87996610849
 31
0.0
  0
LINE
  5
2938
330
18
100
AcDbEntity
  8
OBJECT
 48
10.0
100
AcDbLine
 10
4958.162962427721
 20
4585.87996610849
 30
0.0
 11
4958.162962427717
 21
3585.87996610849
 31
0.0
  0
SOLID
  5
2939
330
18
100
AcDbEntity
  8
0
  6
ByBlock
 62
     0
 48
10.0
100
AcDbTrace
 10
4964.412953664298
 20
3623.37996610851
 30
0.0
 11
4951.912953664297
 21
3623.37996610851
 31
0.0
 12
4958.162953664295
 22
3585.87996610851
 32
0.0
 13
4958.162953664295
 23
3585.87996610851
 33
0.0
  0
MTEXT
  5
293A
330
18
100
AcDbEntity
  8
0
  6
ByBlock
 62
     0
 48
10.0
100
AcDbMText
 10
4928.162953664299
 20
4085.87996610849
 30
0.0
 40
37.5
 41
0.0
 71
     5
 72
     1
  1
H
 11
0.0000000000000001
 21
1.0
 31
0.0
 73
     1
 44
1.0
  0
SOLID
  5
293C
330
18
100
AcDbEntity
  8
0
  6
ByBlock
 62
     0
 48
10.0
100
AcDbTrace
 10
4964.412953664298
 20
4548.379966108466
 30
0.0
 11
4951.912953664297
 21
4548.379966108466
 31
0.0
 12
4958.162953664295
 22
4585.879966108467
 32
0.0
 13
4958.162953664295
 23
4585.879966108467
 33
0.0
  0
MTEXT
  5
29A8
330
18
100
AcDbEntity
  8
0
  6
ByBlock
 62
     0
 48
10.0
100
AcDbMText
 10
6675.71276605858
 20
4715.879966108491
 30
0.0
 40
30.0
 41
0.0
 71
     5
 72
     1
  1
受枠
 73
     1
 44
1.0
  0
LINE
  5
29A9
330
18
100
AcDbEntity
  8
WUWAGAKI
 48
10.0
100
AcDbLine
 10
6405.416413614652
 20
4778.53962417221
 30
0.0
 11
6623.212766058578
 21
4685.87996610849
 31
0.0
210
0.0
220
0.0
230
-1.0
1001
ACAD
1000
DSTYLE
1002
{
1070
    78
1070
     8
1070
   270
1070
     8
1070
   140
1040
2.5
1070
    74
1070
     0
1070
   172
1070
     1
1070
    73
1070
     0
1070
    77
1070
     1
1070
    40
1040
10.0
1070
   147
1040
0.625
1070
    42
1040
0.625
1070
    44
1040
1.25
1070
    43
1040
3.75
1070
   141
1040
2.5
1070
    41
1040
2.5
1070
   273
1070
     8
1070
   274
1070
     4
1070
   143
1040
0.0394
1070
   171
1070
     4
1002
}
  0
LINE
  5
29AC
330
18
100
AcDbEntity
  8
OBJECT
 48
10.0
100
AcDbLine
 10
6623.212766058578
 20
4685.87996610849
 30
0.0
 11
6728.21276605858
 21
4685.87996610849
 31
0.0
  0
SOLID
  5
29AD
330
18
100
AcDbEntity
  8
0
  6
ByBlock
 62
     0
 48
10.0
100
AcDbTrace
 10
6425.071151830117
 20
4776.76418813002
 30
0.0
 11
6420.119645557865
 21
4765.286706453458
 31
0.0
 12
6388.162953664298
 22
4785.87996610849
 32
0.0
 13
6388.162953664298
 23
4785.87996610849
 33
0.0
  0
MTEXT
  5
29AE
330
18
100
AcDbEntity
  8
0
  6
ByBlock
 62
     0
 48
10.0
100
AcDbMText
 10
6740.71276605858
 20
4926.581303698476
 30
0.0
 40
30.0
 41
0.0
 71
     5
 72
     1
  1
グレーチング
 73
     1
 44
1.0
  0
LINE
  5
29AF
330
18
100
AcDbEntity
  8
OBJECT
 48
10.0
100
AcDbLine
 10
6623.212766058578
 20
4896.581303698476
 30
0.0
 11
6868.212766058579
 21
4896.581303698476
 31
0.0
  0
LINE
  5
29B8
330
18
100
AcDbEntity
  8
OBJECT
 48
10.0
100
AcDbLine
 10
6488.162953664299
 20
6215.879957345069
 30
0.0
 11
5288.162953664299
 21
6215.87995734507
 31
0.0
  0
LINE
  5
29B9
330
18
100
AcDbEntity
  8
OBJECT
 48
10.0
100
AcDbLine
 10
5288.162953664299
 20
6065.879955368541
 30
0.0
 11
6488.162953664299
 21
6065.879955368541
 31
0.0
  0
LINE
  5
2A8B
330
18
100
AcDbEntity
  8
0
 48
10.0
100
AcDbLine
 10
5438.162953664299
 20
5915.879966108491
 30
0.0
 11
5438.162953664299
 21
6095.879966108491
 31
0.0
  0
LINE
  5
2A8C
330
18
100
AcDbEntity
  8
0
 48
10.0
100
AcDbLine
 10
5288.162953664299
 20
5915.879966108491
 30
0.0
 11
5288.162953664299
 21
6245.87996610849
 31
0.0
  0
MTEXT
  5
2A8D
330
18
100
AcDbEntity
  8
0
  6
ByBlock
 62
     0
 48
10.0
100
AcDbMText
 10
5363.162953664299
 20
6095.87995734507
 30
0.0
 40
37.5
 41
0.0
 71
     5
 72
     1
  1
150
 73
     1
 44
1.0
  0
SOLID
  5
2A8E
330
18
100
AcDbEntity
  8
0
  6
ByBlock
 62
     0
 48
10.0
100
AcDbTrace
 10
5325.662965523452
 20
6059.629955368543
 30
0.0
 11
5325.662965523452
 21
6072.129955368544
 31
0.0
 12
5288.162965523452
 22
6065.879955368544
 32
0.0
 13
5288.162965523452
 23
6065.879955368544
 33
0.0
  0
SOLID
  5
2A8F
330
18
100
AcDbEntity
  8
0
  6
ByBlock
 62
     0
 48
10.0
100
AcDbTrace
 10
5325.66295366432
 20
6209.629966108492
 30
0.0
 11
5325.66295366432
 21
6222.129966108493
 31
0.0
 12
5288.16295366432
 22
6215.879966108494
 32
0.0
 13
5288.16295366432
 23
6215.879966108494
 33
0.0
  0
SOLID
  5
2A90
330
18
100
AcDbEntity
  8
0
  6
ByBlock
 62
     0
 48
10.0
100
AcDbTrace
 10
5400.662953664299
 20
6059.629966108488
 30
0.0
 11
5400.662953664299
 21
6072.129966108488
 31
0.0
 12
5438.162953664299
 22
6065.87996610849
 32
0.0
 13
5438.162953664299
 23
6065.87996610849
 33
0.0
  0
SOLID
  5
2A91
330
18
100
AcDbEntity
  8
0
  6
ByBlock
 62
     0
 48
10.0
100
AcDbTrace
 10
5475.662953664299
 20
6059.629966108488
 30
0.0
 11
5475.662953664299
 21
6072.129966108488
 31
0.0
 12
5438.162953664299
 22
6065.87996610849
 32
0.0
 13
5438.162953664299
 23
6065.87996610849
 33
0.0
  0
MTEXT
  5
2A92
330
18
100
AcDbEntity
  8
0
  6
ByBlock
 62
     0
 48
10.0
100
AcDbMText
 10
5888.162953664298
 20
6095.879966108491
 30
0.0
 40
37.5
 41
0.0
 71
     5
 72
     1
  1
900
 73
     1
 44
1.0
  0
MTEXT
  5
2A93
330
18
100
AcDbEntity
  8
0
  6
ByBlock
 62
     0
 48
10.0
100
AcDbMText
 10
5888.162953664298
 20
6245.879966108492
 30
0.0
 40
37.5
 41
0.0
 71
     5
 72
     1
  1
1200
 73
     1
 44
1.0
  0
LINE
  5
2AC9
330
18
100
AcDbEntity
  8
0
 48
10.0
100
AcDbLine
 10
6488.162953664299
 20
5915.879966108491
 30
0.0
 11
6488.162953664299
 21
6245.87996610849
 31
0.0
  0
LINE
  5
2ACA
330
18
100
AcDbEntity
  8
0
 48
10.0
100
AcDbLine
 10
6338.162953664299
 20
5915.879966108491
 30
0.0
 11
6338.162953664299
 21
6095.879966108491
 31
0.0
  0
SOLID
  5
2ACB
330
18
100
AcDbEntity
  8
0
  6
ByBlock
 62
     0
 48
10.0
100
AcDbTrace
 10
6300.663018103993
 20
6059.629966108488
 30
0.0
 11
6300.663018103993
 21
6072.129966108488
 31
0.0
 12
6338.163018103994
 22
6065.87996610849
 32
0.0
 13
6338.163018103994
 23
6065.87996610849
 33
0.0
  0
MTEXT
  5
2ACC
330
18
100
AcDbEntity
  8
0
  6
ByBlock
 62
     0
 48
10.0
100
AcDbMText
 10
6413.162953664299
 20
6095.87995734507
 30
0.0
 40
37.5
 41
0.0
 71
     5
 72
     1
  1
150
 73
     1
 44
1.0
  0
SOLID
  5
2ACD
330
18
100
AcDbEntity
  8
0
  6
ByBlock
 62
     0
 48
10.0
100
AcDbTrace
 10
6375.662953664301
 20
6059.629966108488
 30
0.0
 11
6375.662953664301
 21
6072.129966108488
 31
0.0
 12
6338.162953664301
 22
6065.87996610849
 32
0.0
 13
6338.162953664301
 23
6065.87996610849
 33
0.0
  0
SOLID
  5
2ACE
330
18
100
AcDbEntity
  8
0
  6
ByBlock
 62
     0
 48
10.0
100
AcDbTrace
 10
6450.662941805145
 20
6059.629955368543
 30
0.0
 11
6450.662941805145
 21
6072.129955368544
 31
0.0
 12
6488.162941805144
 22
6065.879955368544
 32
0.0
 13
6488.162941805144
 23
6065.879955368544
 33
0.0
  0
SOLID
  5
2ACF
330
18
100
AcDbEntity
  8
0
  6
ByBlock
 62
     0
 48
10.0
100
AcDbTrace
 10
6450.662953664276
 20
6209.629966108492
 30
0.0
 11
6450.662953664276
 21
6222.129966108493
 31
0.0
 12
6488.162953664276
 22
6215.879966108494
 32
0.0
 13
6488.162953664276
 23
6215.879966108494
 33
0.0
  0
LINE
  5
2AD0
330
18
100
AcDbEntity
  8
WUWAGAKI
100
AcDbLine
 10
9096.755595115467
 20
3471.186551246838
 30
0.0
 11
9096.755595115467
 21
6397.336403042962
 31
0.0
  0
TEXT
  5
2AD6
330
18
100
AcDbEntity
  8
WUWAGAKI
100
AcDbText
 10
8176.161440106564
 20
3571.293652495027
 30
0.0
 40
60.0
  1
㈱　ウ　チ　コ　ン
100
AcDbText
  0
TEXT
  5
2AD7
330
18
100
AcDbEntity
  8
WUWAGAKI
100
AcDbText
 10
8243.908882138429
 20
3791.800923168869
 30
0.0
 40
47.25
  1
900×900×150/150×H
100
AcDbText
  0
LINE
  5
2AD8
330
18
100
AcDbEntity
  8
WUWAGAKI
100
AcDbLine
 10
7937.456007207089
 20
3670.714781243852
 30
0.0
 11
9030.252582307509
 21
3670.714781243852
 31
0.0
  0
LINE
  5
2AD9
330
18
100
AcDbEntity
  8
WUWAGAKI
100
AcDbLine
 10
7937.456007207089
 20
3769.229845408458
 30
0.0
 11
9030.252582307509
 21
3769.229845408458
 31
0.0
  0
LINE
  5
2ADA
330
18
100
AcDbEntity
  8
WUWAGAKI
100
AcDbLine
 10
7937.456007207089
 20
3539.686085688641
 30
0.0
 11
9030.252582307513
 21
3539.686085688641
 31
0.0
  0
LINE
  5
2ADB
330
18
100
AcDbEntity
  8
WUWAGAKI
100
AcDbLine
 10
7937.456007207089
 20
3865.136230373073
 30
0.0
 11
9027.62075997175
 21
3865.136230373073
 31
0.0
  0
LINE
  5
2ADC
330
18
100
AcDbEntity
  8
WUWAGAKI
100
AcDbLine
 10
7937.456007207089
 20
3865.136230373073
 30
0.0
 11
9027.62075997175
 21
3865.136230373073
 31
0.0
  0
LINE
  5
2ADD
330
18
100
AcDbEntity
  8
WUWAGAKI
100
AcDbLine
 10
7937.456007207089
 20
3959.66651831821
 30
0.0
 11
9030.252582307513
 21
3959.66651831821
 31
0.0
  0
TEXT
  5
2AEE
330
18
100
AcDbEntity
  8
WUWAGAKI
100
AcDbText
 10
7982.33445096937
 20
3790.283277553607
 30
0.0
 40
45.0
  1
寸　法
100
AcDbText
  0
LINE
  5
2AEF
330
18
100
AcDbEntity
  8
WUWAGAKI
100
AcDbLine
 10
8189.572478775597
 20
3959.66651831821
 30
0.0
 11
8189.572478775597
 21
3670.714781243852
 31
0.0
  0
LINE
  5
2AF0
330
18
100
AcDbEntity
  8
WUWAGAKI
100
AcDbLine
 10
7937.456007207089
 20
3959.66651831821
 30
0.0
 11
7937.456007207089
 21
3539.686085688641
 31
0.0
  0
TEXT
  5
2AF1
330
18
100
AcDbEntity
  8
WUWAGAKI
100
AcDbText
 10
8243.908882138429
 20
3695.087239991583
 30
0.0
 40
45.0
  1
S＝　1：15
100
AcDbText
  0
TEXT
  5
2AF2
330
18
100
AcDbEntity
  8
WUWAGAKI
100
AcDbText
 10
8009.982208730452
 20
3693.785324562126
 30
0.0
 40
45.0
  1
縮尺
100
AcDbText
  0
LINE
  5
2AF3
330
18
100
AcDbEntity
  8
WUWAGAKI
100
AcDbLine
 10
8583.741964959505
 20
3769.229845408458
 30
0.0
 11
8583.741964959505
 21
3670.714781243852
 31
0.0
  0
TEXT
  5
2AF4
330
18
100
AcDbEntity
  8
WUWAGAKI
100
AcDbText
 10
8610.669740711651
 20
3695.136677503124
 30
0.0
 40
45.0
  1
重量
100
AcDbText
  0
TEXT
  5
2AF5
330
18
100
AcDbEntity
  8
WUWAGAKI
100
AcDbText
 10
8243.908882138429
 20
3888.842957394529
 30
0.0
 40
45.0
  1
集水桝
100
AcDbText
  0
TEXT
  5
2AF6
330
18
100
AcDbEntity
  8
WUWAGAKI
100
AcDbText
 10
7984.98966285579
 20
3891.422117590588
 30
0.0
 40
45.0
  1
種　別
100
AcDbText
  0
LINE
  5
2B0C
330
18
100
AcDbEntity
  8
WUWAGAKI
100
AcDbLine
 10
9030.252582307513
 20
3539.686085688641
 30
0.0
 11
9030.252582307513
 21
3959.66651831821
 31
0.0
  0
LINE
  5
2B0D
330
18
100
AcDbEntity
  8
WUWAGAKI
100
AcDbLine
 10
8767.970391721824
 20
3769.229845408458
 30
0.0
 11
8767.970391721824
 21
3670.714781243852
 31
0.0
  0
LINE
  5
2B3C
330
18
100
AcDbEntity
  8
0
 48
10.0
100
AcDbLine
 10
5258.162953664299
 20
4685.87996610849
 30
0.0
 11
4928.162953664299
 21
4685.87996610849
 31
0.0
  0
LINE
  5
2B3D
330
18
100
AcDbEntity
  8
0
 48
10.0
100
AcDbLine
 10
5258.162953664299
 20
4835.87996610849
 30
0.0
 11
5078.162953664299
 21
4835.87996610849
 31
0.0
  0
LINE
  5
2B3E
330
18
100
AcDbEntity
  8
0
 48
10.0
100
AcDbLine
 10
5258.162953664299
 20
5885.87996610849
 30
0.0
 11
4928.162953664299
 21
5885.87996610849
 31
0.0
  0
LINE
  5
2B3F
330
18
100
AcDbEntity
  8
0
 48
10.0
100
AcDbLine
 10
5258.162953664299
 20
5735.87996610849
 30
0.0
 11
5078.162953664299
 21
5735.87996610849
 31
0.0
  0
LINE
  5
2B40
330
18
100
AcDbEntity
  8
OBJECT
 48
10.0
100
AcDbLine
 10
5108.162964404248
 20
4685.87996610849
 30
0.0
 11
5108.162964404248
 21
5885.87996610849
 31
0.0
  0
LINE
  5
2B41
330
18
100
AcDbEntity
  8
OBJECT
 48
10.0
100
AcDbLine
 10
4958.162962427721
 20
5885.87996610849
 30
0.0
 11
4958.162962427718
 21
4685.87996610849
 31
0.0
  0
SOLID
  5
2B42
330
18
100
AcDbEntity
  8
0
  6
ByBlock
 62
     0
 48
10.0
100
AcDbTrace
 10
5114.412964404245
 20
4723.379977967645
 30
0.0
 11
5101.912964404245
 21
4723.379977967645
 31
0.0
 12
5108.162964404245
 22
4685.879977967644
 32
0.0
 13
5108.162964404245
 23
4685.879977967644
 33
0.0
  0
SOLID
  5
2B43
330
18
100
AcDbEntity
  8
0
  6
ByBlock
 62
     0
 48
10.0
100
AcDbTrace
 10
5114.412953664301
 20
4873.37996610849
 30
0.0
 11
5101.9129536643
 21
4873.37996610849
 31
0.0
 12
5108.162953664298
 22
4835.87996610849
 32
0.0
 13
5108.162953664298
 23
4835.87996610849
 33
0.0
  0
SOLID
  5
2B44
330
18
100
AcDbEntity
  8
0
  6
ByBlock
 62
     0
 48
10.0
100
AcDbTrace
 10
5114.412953664301
 20
4798.37996610849
 30
0.0
 11
5101.9129536643
 21
4798.37996610849
 31
0.0
 12
5108.162953664298
 22
4835.87996610849
 32
0.0
 13
5108.162953664298
 23
4835.87996610849
 33
0.0
  0
MTEXT
  5
2B45
330
18
100
AcDbEntity
  8
0
  6
ByBlock
 62
     0
 48
10.0
100
AcDbMText
 10
5078.162962427718
 20
4760.87996610849
 30
0.0
 40
37.5
 41
0.0
 71
     5
 72
     1
  1
150
 11
0.0000000000000001
 21
1.0
 31
0.0
 73
     1
 44
1.0
  0
SOLID
  5
2B46
330
18
100
AcDbEntity
  8
0
  6
ByBlock
 62
     0
 48
10.0
100
AcDbTrace
 10
4964.412953664297
 20
4723.379966108512
 30
0.0
 11
4951.912953664296
 21
4723.379966108512
 31
0.0
 12
4958.162953664295
 22
4685.879966108512
 32
0.0
 13
4958.162953664295
 23
4685.879966108512
 33
0.0
  0
MTEXT
  5
2B47
330
18
100
AcDbEntity
  8
0
  6
ByBlock
 62
     0
 48
10.0
100
AcDbMText
 10
5078.162953664298
 20
5285.87996610849
 30
0.0
 40
37.5
 41
0.0
 71
     5
 72
     1
  1
900
 11
0.0000000000000001
 21
1.0
 31
0.0
 73
     1
 44
1.0
  0
MTEXT
  5
2B48
330
18
100
AcDbEntity
  8
0
  6
ByBlock
 62
     0
 48
10.0
100
AcDbMText
 10
4928.162953664298
 20
5285.87996610849
 30
0.0
 40
37.5
 41
0.0
 71
     5
 72
     1
  1
1200
 11
0.0000000000000001
 21
1.0
 31
0.0
 73
     1
 44
1.0
  0
SOLID
  5
2B49
330
18
100
AcDbEntity
  8
0
  6
ByBlock
 62
     0
 48
10.0
100
AcDbTrace
 10
5114.412953664301
 20
5773.379966108493
 30
0.0
 11
5101.912953664301
 21
5773.379966108493
 31
0.0
 12
5108.162953664299
 22
5735.879966108493
 32
0.0
 13
5108.162953664299
 23
5735.879966108493
 33
0.0
  0
SOLID
  5
2B4A
330
18
100
AcDbEntity
  8
0
  6
ByBlock
 62
     0
 48
10.0
100
AcDbTrace
 10
5114.412953664301
 20
5698.380030548186
 30
0.0
 11
5101.912953664301
 21
5698.380030548186
 31
0.0
 12
5108.162953664299
 22
5735.880030548186
 32
0.0
 13
5108.162953664299
 23
5735.880030548186
 33
0.0
  0
SOLID
  5
2B4B
330
18
100
AcDbEntity
  8
0
  6
ByBlock
 62
     0
 48
10.0
100
AcDbTrace
 10
5114.412964404245
 20
5848.379954249336
 30
0.0
 11
5101.912964404245
 21
5848.379954249336
 31
0.0
 12
5108.162964404246
 22
5885.879954249336
 32
0.0
 13
5108.162964404246
 23
5885.879954249336
 33
0.0
  0
MTEXT
  5
2B4C
330
18
100
AcDbEntity
  8
0
  6
ByBlock
 62
     0
 48
10.0
100
AcDbMText
 10
5078.162962427718
 20
5810.87996610849
 30
0.0
 40
37.5
 41
0.0
 71
     5
 72
     1
  1
150
 11
0.0000000000000001
 21
1.0
 31
0.0
 73
     1
 44
1.0
  0
SOLID
  5
2B4D
330
18
100
AcDbEntity
  8
0
  6
ByBlock
 62
     0
 48
10.0
100
AcDbTrace
 10
4964.412953664298
 20
5848.379966108469
 30
0.0
 11
4951.912953664296
 21
5848.379966108469
 31
0.0
 12
4958.162953664295
 22
5885.879966108468
 32
0.0
 13
4958.162953664295
 23
5885.879966108468
 33
0.0
  0
VIEWPORT
  5
298
330
15
100
AcDbEntity
 67
     1
  8
0
100
AcDbViewport
 10
291.7632241813602
 20
148.5
 30
0.0
 40
583.5264483627204
 41
297.0
 68
     1
 69
     1
 12
291.7632241813602
 22
148.5
 13
0.0
 23
0.0
 14
10.0
 24
10.0
 15
10.0
 25
10.0
 16
0.0
 26
0.0
 36
1.0
 17
0.0
 27
0.0
 37
0.0
 42
50.0
 43
0.0
 44
0.0
 45
297.0
 50
0.0
 51
0.0
 72
   100
 90
    32800
  1

281
     0
 71
     1
 74
     0
110
0.0
120
0.0
130
0.0
111
1.0
121
0.0
131
0.0
112
0.0
122
1.0
132
0.0
 79
     0
146
0.0
  0
ENDSEC
  0
SECTION
  2
OBJECTS
  0
DICTIONARY
  5
C
330
0
100
AcDbDictionary
281
     1
  3
ACAD_GROUP
350
D
  3
ACAD_LAYOUT
350
15FE
  3
ACAD_MLINESTYLE
350
1B
  3
ACAD_PLOTSETTINGS
350
15FF
  3
ACAD_PLOTSTYLENAME
350
15FC
  3
ACDBVARIABLEDICTIONARY
350
B2A
  3
DRAWINGVARIABLESDICT
350
1212
  0
DICTIONARY
  5
D
102
{ACAD_REACTORS
330
C
102
}
330
C
100
AcDbDictionary
281
     1
  3
*A1
350
1DE1
  3
*A2
350
2483
  3
*A3
350
2486
  3
*A4
350
2640
  0
DICTIONARY
  5
15FE
102
{ACAD_REACTORS
330
C
102
}
330
C
100
AcDbDictionary
281
     1
  3
Model
350
1600
  3
ﾚｲｱｳﾄ1
350
1601
  0
DICTIONARY
  5
1B
102
{ACAD_REACTORS
330
C
102
}
330
C
100
AcDbDictionary
281
     1
  3
STANDARD
350
1C
  0
DICTIONARY
  5
15FF
102
{ACAD_REACTORS
330
C
102
}
330
C
100
AcDbDictionary
281
     1
  0
ACDBDICTIONARYWDFLT
  5
15FC
102
{ACAD_REACTORS
330
C
102
}
330
C
100
AcDbDictionary
281
     1
  3
Normal
350
15FD
100
AcDbDictionaryWithDefault
340
15FD
  0
DICTIONARY
  5
B2A
102
{ACAD_REACTORS
330
C
102
}
330
C
100
AcDbDictionary
281
     1
  3
SORTENTS
350
B2B
  0
DICTIONARY
  5
1212
102
{ACAD_REACTORS
330
C
102
}
330
C
100
AcDbDictionary
281
     1
1001
DRAWINGVARIABLESXDATA
1000
POLARANG
1000
0.785398
1000
POLARMODE
1000
0
  0
GROUP
  5
1DE1
102
{ACAD_REACTORS
330
D
102
}
330
D
100
AcDbGroup
300

 70
     1
 71
     1
  0
GROUP
  5
2483
102
{ACAD_REACTORS
330
D
102
}
330
D
100
AcDbGroup
300

 70
     1
 71
     1
  0
GROUP
  5
2486
102
{ACAD_REACTORS
330
D
102
}
330
D
100
AcDbGroup
300

 70
     1
 71
     1
  0
GROUP
  5
2640
102
{ACAD_REACTORS
330
D
102
}
330
D
100
AcDbGroup
300

 70
     1
 71
     1
340
2639
340
263B
340
2636
  0
LAYOUT
  5
1600
102
{ACAD_REACTORS
330
15FE
102
}
330
15FE
100
AcDbPlotSettings
  1

  2
Canon LBP3800 LIPSLX
  4
A4
  6

 40
5.873749732971191
 41
5.873747825622558
 42
5.873748779296875
 43
5.873748779296875
 44
209.9733276367187
 45
296.9259948730469
 46
0.0
 47
0.0
 48
0.0
 49
0.0
140
0.0
141
0.0
142
1.0
143
1.0
 70
 11952
 72
     1
 73
     1
 74
     0
  7

 75
     0
147
1.0
148
-4415.141772681328
149
-2309.189704430788
100
AcDbLayout
  1
Model
 70
     1
 71
     0
 10
0.0
 20
0.0
 11
12.0
 21
9.0
 12
0.0
 22
0.0
 32
0.0
 14
0.0
 24
0.0
 34
0.0
 15
0.0
 25
0.0
 35
0.0
146
0.0
 13
0.0
 23
0.0
 33
0.0
 16
1.0
 26
0.0
 36
0.0
 17
0.0
 27
1.0
 37
0.0
 76
     0
330
18
  0
LAYOUT
  5
1601
102
{ACAD_REACTORS
330
15FE
102
}
330
15FE
100
AcDbPlotSettings
  1

  2
Canon LBP3800 LIPSLX
  4

  6

 40
0.0
 41
0.0
 42
0.0
 43
0.0
 44
0.0
 45
0.0
 46
0.0
 47
0.0
 48
0.0
 49
0.0
140
0.0
141
0.0
142
1.0
143
1.0
 70
   688
 72
     0
 73
     0
 74
     5
  7

 75
    16
147
1.0
148
0.0
149
0.0
100
AcDbLayout
  1
ﾚｲｱｳﾄ1
 70
     1
 71
     1
 10
0.0
 20
0.0
 11
420.0
 21
297.0
 12
0.0
 22
0.0
 32
0.0
 14
1.000000000000000E+20
 24
1.000000000000000E+20
 34
1.000000000000000E+20
 15
-1.000000000000000E+20
 25
-1.000000000000000E+20
 35
-1.000000000000000E+20
146
0.0
 13
0.0
 23
0.0
 33
0.0
 16
1.0
 26
0.0
 36
0.0
 17
0.0
 27
1.0
 37
0.0
 76
     0
330
15
331
298
  0
MLINESTYLE
  5
1C
102
{ACAD_REACTORS
330
1B
102
}
330
1B
100
AcDbMlineStyle
  2
STANDARD
 70
     0
  3

 62
   256
 51
90.0
 52
90.0
 71
     2
 49
0.5
 62
   256
  6
BYLAYER
 49
-0.5
 62
   256
  6
BYLAYER
  0
ACDBPLACEHOLDER
  5
15FD
102
{ACAD_REACTORS
330
15FC
102
}
330
15FC
  0
DICTIONARYVAR
  5
B2B
102
{ACAD_REACTORS
330
B2A
102
}
330
B2A
100
DictionaryVariables
280
     0
  1
96
  0
ENDSEC
  0
EOF
