  0
SECTION
  2
HEADER
  9
$ACADVER
  1
AC1015
  9
$ACADMAINTVER
 70
     6
  9
$DWGCODEPAGE
  3
ANSI_932
  9
$INSBASE
 10
0.0
 20
0.0
 30
0.0
  9
$EXTMIN
 10
710.0813698183028
 20
984.8549298695507
 30
0.0
  9
$EXTMAX
 10
9231.144525846554
 20
6279.004465519509
 30
0.0
  9
$LIMMIN
 10
0.0
 20
0.0
  9
$LIMMAX
 10
4455.0
 20
3150.0
  9
$ORTHOMODE
 70
     0
  9
$REGENMODE
 70
     1
  9
$FILLMODE
 70
     1
  9
$QTEXTMODE
 70
     0
  9
$MIRRTEXT
 70
     1
  9
$LTSCALE
 40
5.0
  9
$ATTMODE
 70
     1
  9
$TEXTSIZE
 40
2.5
  9
$TRACEWID
 40
1.0
  9
$TEXTSTYLE
  7
STANDARD
  9
$CLAYER
  8
OBJECT
  9
$CELTYPE
  6
BYLAYER
  9
$CECOLOR
 62
   256
  9
$CELTSCALE
 40
1.0
  9
$DISPSILH
 70
     0
  9
$DIMSCALE
 40
15.0
  9
$DIMASZ
 40
2.5
  9
$DIMEXO
 40
0.625
  9
$DIMDLI
 40
3.75
  9
$DIMRND
 40
0.0
  9
$DIMDLE
 40
0.0
  9
$DIMEXE
 40
1.25
  9
$DIMTP
 40
0.0
  9
$DIMTM
 40
0.0
  9
$DIMTXT
 40
2.5
  9
$DIMCEN
 40
2.5
  9
$DIMTSZ
 40
0.0
  9
$DIMTOL
 70
     0
  9
$DIMLIM
 70
     0
  9
$DIMTIH
 70
     0
  9
$DIMTOH
 70
     0
  9
$DIMSE1
 70
     0
  9
$DIMSE2
 70
     0
  9
$DIMTAD
 70
     1
  9
$DIMZIN
 70
     8
  9
$DIMBLK
  1

  9
$DIMASO
 70
     1
  9
$DIMSHO
 70
     1
  9
$DIMPOST
  1

  9
$DIMAPOST
  1

  9
$DIMALT
 70
     0
  9
$DIMALTD
 70
     4
  9
$DIMALTF
 40
0.0394
  9
$DIMLFAC
 40
1.0
  9
$DIMTOFL
 70
     1
  9
$DIMTVP
 40
0.0
  9
$DIMTIX
 70
     0
  9
$DIMSOXD
 70
     0
  9
$DIMSAH
 70
     0
  9
$DIMBLK1
  1

  9
$DIMBLK2
  1

  9
$DIMSTYLE
  2
STANDARD
  9
$DIMCLRD
 70
     0
  9
$DIMCLRE
 70
     0
  9
$DIMCLRT
 70
     0
  9
$DIMTFAC
 40
1.0
  9
$DIMGAP
 40
0.625
  9
$DIMJUST
 70
     0
  9
$DIMSD1
 70
     0
  9
$DIMSD2
 70
     0
  9
$DIMTOLJ
 70
     1
  9
$DIMTZIN
 70
     0
  9
$DIMALTZ
 70
     0
  9
$DIMALTTZ
 70
     0
  9
$DIMUPT
 70
     0
  9
$DIMDEC
 70
     4
  9
$DIMTDEC
 70
     4
  9
$DIMALTU
 70
     8
  9
$DIMALTTD
 70
     4
  9
$DIMTXSTY
  7
STANDARD
  9
$DIMAUNIT
 70
     0
  9
$DIMADEC
 70
     0
  9
$DIMALTRND
 40
0.0
  9
$DIMAZIN
 70
     0
  9
$DIMDSEP
 70
    46
  9
$DIMATFIT
 70
     3
  9
$DIMFRAC
 70
     0
  9
$DIMLDRBLK
  1

  9
$DIMLUNIT
 70
     6
  9
$DIMLWD
 70
    -2
  9
$DIMLWE
 70
    -2
  9
$DIMTMOVE
 70
     0
  9
$LUNITS
 70
     2
  9
$LUPREC
 70
     4
  9
$SKETCHINC
 40
1.0
  9
$FILLETRAD
 40
10.0
  9
$AUNITS
 70
     0
  9
$AUPREC
 70
     0
  9
$MENU
  1
acad
  9
$ELEVATION
 40
0.0
  9
$PELEVATION
 40
0.0
  9
$THICKNESS
 40
0.0
  9
$LIMCHECK
 70
     0
  9
$CHAMFERA
 40
10.0
  9
$CHAMFERB
 40
10.0
  9
$CHAMFERC
 40
20.0
  9
$CHAMFERD
 40
0.0
  9
$SKPOLY
 70
     0
  9
$TDCREATE
 40
2452111.335768865
  9
$TDUCREATE
 40
2452110.960768866
  9
$TDUPDATE
 40
2454547.693308819
  9
$TDUUPDATE
 40
2454547.318308819
  9
$TDINDWG
 40
0.8825345486
  9
$TDUSRTIMER
 40
0.8825345486
  9
$USRTIMER
 70
     1
  9
$ANGBASE
 50
0.0
  9
$ANGDIR
 70
     0
  9
$PDMODE
 70
     0
  9
$PDSIZE
 40
0.0
  9
$PLINEWID
 40
0.0
  9
$SPLFRAME
 70
     0
  9
$SPLINETYPE
 70
     6
  9
$SPLINESEGS
 70
     8
  9
$HANDSEED
  5
2AC5
  9
$SURFTAB1
 70
     6
  9
$SURFTAB2
 70
     6
  9
$SURFTYPE
 70
     6
  9
$SURFU
 70
     6
  9
$SURFV
 70
     6
  9
$UCSBASE
  2

  9
$UCSNAME
  2

  9
$UCSORG
 10
0.0
 20
0.0
 30
0.0
  9
$UCSXDIR
 10
1.0
 20
0.0
 30
0.0
  9
$UCSYDIR
 10
0.0
 20
1.0
 30
0.0
  9
$UCSORTHOREF
  2

  9
$UCSORTHOVIEW
 70
     0
  9
$UCSORGTOP
 10
0.0
 20
0.0
 30
0.0
  9
$UCSORGBOTTOM
 10
0.0
 20
0.0
 30
0.0
  9
$UCSORGLEFT
 10
0.0
 20
0.0
 30
0.0
  9
$UCSORGRIGHT
 10
0.0
 20
0.0
 30
0.0
  9
$UCSORGFRONT
 10
0.0
 20
0.0
 30
0.0
  9
$UCSORGBACK
 10
0.0
 20
0.0
 30
0.0
  9
$PUCSBASE
  2

  9
$PUCSNAME
  2

  9
$PUCSORG
 10
0.0
 20
0.0
 30
0.0
  9
$PUCSXDIR
 10
1.0
 20
0.0
 30
0.0
  9
$PUCSYDIR
 10
0.0
 20
1.0
 30
0.0
  9
$PUCSORTHOREF
  2

  9
$PUCSORTHOVIEW
 70
     0
  9
$PUCSORGTOP
 10
0.0
 20
0.0
 30
0.0
  9
$PUCSORGBOTTOM
 10
0.0
 20
0.0
 30
0.0
  9
$PUCSORGLEFT
 10
0.0
 20
0.0
 30
0.0
  9
$PUCSORGRIGHT
 10
0.0
 20
0.0
 30
0.0
  9
$PUCSORGFRONT
 10
0.0
 20
0.0
 30
0.0
  9
$PUCSORGBACK
 10
0.0
 20
0.0
 30
0.0
  9
$USERI1
 70
     0
  9
$USERI2
 70
     0
  9
$USERI3
 70
     0
  9
$USERI4
 70
     0
  9
$USERI5
 70
     0
  9
$USERR1
 40
0.0
  9
$USERR2
 40
0.0
  9
$USERR3
 40
0.0
  9
$USERR4
 40
0.0
  9
$USERR5
 40
0.0
  9
$WORLDVIEW
 70
     1
  9
$SHADEDGE
 70
     3
  9
$SHADEDIF
 70
    70
  9
$TILEMODE
 70
     1
  9
$MAXACTVP
 70
    48
  9
$PINSBASE
 10
0.0
 20
0.0
 30
0.0
  9
$PLIMCHECK
 70
     0
  9
$PEXTMIN
 10
1.000000000000000E+20
 20
1.000000000000000E+20
 30
1.000000000000000E+20
  9
$PEXTMAX
 10
-1.000000000000000E+20
 20
-1.000000000000000E+20
 30
-1.000000000000000E+20
  9
$PLIMMIN
 10
0.0
 20
0.0
  9
$PLIMMAX
 10
420.0
 20
297.0
  9
$UNITMODE
 70
     0
  9
$VISRETAIN
 70
     1
  9
$PLINEGEN
 70
     0
  9
$PSLTSCALE
 70
     1
  9
$TREEDEPTH
 70
  3020
  9
$CMLSTYLE
  2
STANDARD
  9
$CMLJUST
 70
     0
  9
$CMLSCALE
 40
20.0
  9
$PROXYGRAPHICS
 70
     1
  9
$MEASUREMENT
 70
     1
  9
$CELWEIGHT
370
    -1
  9
$ENDCAPS
280
     0
  9
$JOINSTYLE
280
     0
  9
$LWDISPLAY
290
     0
  9
$INSUNITS
 70
     0
  9
$HYPERLINKBASE
  1

  9
$STYLESHEET
  1

  9
$XEDIT
290
     1
  9
$CEPSNTYPE
380
     0
  9
$PSTYLEMODE
290
     1
  9
$FINGERPRINTGUID
  2
{C9668057-E409-4CFD-A4F9-6C0551275C13}
  9
$VERSIONGUID
  2
{DE9D2E2A-673F-4DDD-BD6B-AA1E76FA5A58}
  9
$EXTNAMES
290
     1
  9
$PSVPSCALE
 40
0.0
  9
$OLESTARTUP
290
     0
  0
ENDSEC
  0
SECTION
  2
CLASSES
  0
CLASS
  1
LWPOLYLINE
  2
AcDbPolyline
  3
AutoCAD 2000
 90
    32768
280
     0
281
     1
  0
CLASS
  1
DICTIONARYVAR
  2
AcDbDictionaryVar
  3
AutoCAD 2000
 90
        0
280
     0
281
     0
  0
CLASS
  1
HATCH
  2
AcDbHatch
  3
AutoCAD 2000
 90
    32768
280
     0
281
     1
  0
CLASS
  1
ACDBDICTIONARYWDFLT
  2
AcDbDictionaryWithDefault
  3
AutoCAD 2000
 90
        0
280
     0
281
     0
  0
CLASS
  1
ACDBPLACEHOLDER
  2
AcDbPlaceHolder
  3
AutoCAD 2000
 90
        0
280
     0
281
     0
  0
CLASS
  1
LAYOUT
  2
AcDbLayout
  3
AutoCAD 2000
 90
        0
280
     0
281
     0
  0
ENDSEC
  0
SECTION
  2
TABLES
  0
TABLE
  2
VPORT
  5
8
330
0
100
AcDbSymbolTable
 70
     2
  0
VPORT
  5
2AC4
330
8
100
AcDbSymbolTableRecord
100
AcDbViewportTableRecord
  2
*Active
 70
     0
 10
0.0
 20
0.0
 11
1.0
 21
1.0
 12
7043.706596990087
 22
4743.350835026181
 13
0.0
 23
0.0
 14
10.0
 24
10.0
 15
10.0
 25
10.0
 16
0.0
 26
0.0
 36
1.0
 17
0.0
 27
0.0
 37
0.0
 40
3385.335952095459
 41
1.731203007518796
 42
50.0
 43
0.0
 44
0.0
 50
0.0
 51
0.0
 71
     0
 72
   100
 73
     1
 74
     1
 75
     0
 76
     0
 77
     0
 78
     0
281
     0
 65
     1
110
0.0
120
0.0
130
0.0
111
1.0
121
0.0
131
0.0
112
0.0
122
1.0
132
0.0
 79
     0
146
0.0
  0
ENDTAB
  0
TABLE
  2
LTYPE
  5
5
330
0
100
AcDbSymbolTable
 70
    46
  0
LTYPE
  5
12
330
5
100
AcDbSymbolTableRecord
100
AcDbLinetypeTableRecord
  2
BYBLOCK
 70
     0
  3

 72
    65
 73
     0
 40
0.0
  0
LTYPE
  5
13
330
5
100
AcDbSymbolTableRecord
100
AcDbLinetypeTableRecord
  2
BYLAYER
 70
     0
  3

 72
    65
 73
     0
 40
0.0
  0
LTYPE
  5
14
330
5
100
AcDbSymbolTableRecord
100
AcDbLinetypeTableRecord
  2
CONTINUOUS
 70
     0
  3
Solid line
 72
    65
 73
     0
 40
0.0
  0
LTYPE
  5
128
330
5
100
AcDbSymbolTableRecord
100
AcDbLinetypeTableRecord
  2
ACAD_ISO02W100
 70
     0
  3
ISO dash __ __ __ __ __ __ __ __ __ __ __ __ __
 72
    65
 73
     2
 40
15.0
 49
12.0
 74
     0
 49
-3.0
 74
     0
  0
LTYPE
  5
129
330
5
100
AcDbSymbolTableRecord
100
AcDbLinetypeTableRecord
  2
ACAD_ISO03W100
 70
     0
  3
ISO dash space __    __    __    __    __    __
 72
    65
 73
     2
 40
30.0
 49
12.0
 74
     0
 49
-18.0
 74
     0
  0
LTYPE
  5
12A
330
5
100
AcDbSymbolTableRecord
100
AcDbLinetypeTableRecord
  2
ACAD_ISO04W100
 70
     0
  3
ISO long-dash dot ____ . ____ . ____ . ____ . _
 72
    65
 73
     4
 40
30.5
 49
24.0
 74
     0
 49
-3.0
 74
     0
 49
0.5
 74
     0
 49
-3.0
 74
     0
  0
LTYPE
  5
12B
330
5
100
AcDbSymbolTableRecord
100
AcDbLinetypeTableRecord
  2
ACAD_ISO05W100
 70
     0
  3
ISO long-dash double-dot ____ .. ____ .. ____ .
 72
    65
 73
     8
 40
37.5
 49
24.0
 74
     0
 49
-3.0
 74
     0
 49
0.5
 74
     0
 49
-3.0
 74
     0
 49
0.5
 74
     0
 49
-3.0
 74
     0
 49
0.5
 74
     0
 49
-3.0
 74
     0
  0
LTYPE
  5
12C
330
5
100
AcDbSymbolTableRecord
100
AcDbLinetypeTableRecord
  2
ACAD_ISO06W100
 70
     0
  3
ISO long-dash triple-dot ____ ... ____ ... ____
 72
    65
 73
     8
 40
37.5
 49
24.0
 74
     0
 49
-3.0
 74
     0
 49
0.5
 74
     0
 49
-3.0
 74
     0
 49
0.5
 74
     0
 49
-3.0
 74
     0
 49
0.5
 74
     0
 49
-3.0
 74
     0
  0
LTYPE
  5
12D
330
5
100
AcDbSymbolTableRecord
100
AcDbLinetypeTableRecord
  2
ACAD_ISO07W100
 70
     0
  3
ISO dot . . . . . . . . . . . . . . . . . . . .
 72
    65
 73
     2
 40
3.5
 49
0.5
 74
     0
 49
-3.0
 74
     0
  0
LTYPE
  5
12E
330
5
100
AcDbSymbolTableRecord
100
AcDbLinetypeTableRecord
  2
ACAD_ISO08W100
 70
     0
  3
ISO long-dash short-dash ____ __ ____ __ ____ _
 72
    65
 73
     4
 40
36.0
 49
24.0
 74
     0
 49
-3.0
 74
     0
 49
6.0
 74
     0
 49
-3.0
 74
     0
  0
LTYPE
  5
12F
330
5
100
AcDbSymbolTableRecord
100
AcDbLinetypeTableRecord
  2
ACAD_ISO09W100
 70
     0
  3
ISO long-dash double-short-dash ____ __ __ ____
 72
    65
 73
     6
 40
45.0
 49
24.0
 74
     0
 49
-3.0
 74
     0
 49
6.0
 74
     0
 49
-3.0
 74
     0
 49
6.0
 74
     0
 49
-3.0
 74
     0
  0
LTYPE
  5
130
330
5
100
AcDbSymbolTableRecord
100
AcDbLinetypeTableRecord
  2
ACAD_ISO10W100
 70
     0
  3
ISO dash dot __ . __ . __ . __ . __ . __ . __ .
 72
    65
 73
     4
 40
18.5
 49
12.0
 74
     0
 49
-3.0
 74
     0
 49
0.5
 74
     0
 49
-3.0
 74
     0
  0
LTYPE
  5
131
330
5
100
AcDbSymbolTableRecord
100
AcDbLinetypeTableRecord
  2
ACAD_ISO11W100
 70
     0
  3
ISO double-dash dot __ __ . __ __ . __ __ . __ 
 72
    65
 73
     6
 40
33.5
 49
12.0
 74
     0
 49
-3.0
 74
     0
 49
12.0
 74
     0
 49
-3.0
 74
     0
 49
0.5
 74
     0
 49
-3.0
 74
     0
  0
LTYPE
  5
132
330
5
100
AcDbSymbolTableRecord
100
AcDbLinetypeTableRecord
  2
ACAD_ISO12W100
 70
     0
  3
ISO dash double-dot __ . . __ . . __ . . __ . .
 72
    65
 73
     6
 40
22.0
 49
12.0
 74
     0
 49
-3.0
 74
     0
 49
0.5
 74
     0
 49
-3.0
 74
     0
 49
0.5
 74
     0
 49
-3.0
 74
     0
  0
LTYPE
  5
133
330
5
100
AcDbSymbolTableRecord
100
AcDbLinetypeTableRecord
  2
ACAD_ISO13W100
 70
     0
  3
ISO double-dash double-dot __ __ . . __ __ . . 
 72
    65
 73
     8
 40
37.0
 49
12.0
 74
     0
 49
-3.0
 74
     0
 49
12.0
 74
     0
 49
-3.0
 74
     0
 49
0.5
 74
     0
 49
-3.0
 74
     0
 49
0.5
 74
     0
 49
-3.0
 74
     0
  0
LTYPE
  5
134
330
5
100
AcDbSymbolTableRecord
100
AcDbLinetypeTableRecord
  2
ACAD_ISO14W100
 70
     0
  3
ISO dash triple-dot __ . . . __ . . . __ . . . 
 72
    65
 73
     8
 40
25.5
 49
12.0
 74
     0
 49
-3.0
 74
     0
 49
0.5
 74
     0
 49
-3.0
 74
     0
 49
0.5
 74
     0
 49
-3.0
 74
     0
 49
0.5
 74
     0
 49
-3.0
 74
     0
  0
LTYPE
  5
135
330
5
100
AcDbSymbolTableRecord
100
AcDbLinetypeTableRecord
  2
ACAD_ISO15W100
 70
     0
  3
ISO double-dash triple-dot __ __ . . . __ __ . 
 72
    65
 73
    10
 40
40.49999999999999
 49
12.0
 74
     0
 49
-3.0
 74
     0
 49
12.0
 74
     0
 49
-3.0
 74
     0
 49
0.5
 74
     0
 49
-3.0
 74
     0
 49
0.5
 74
     0
 49
-3.0
 74
     0
 49
0.5
 74
     0
 49
-3.0
 74
     0
  0
LTYPE
  5
136
330
5
100
AcDbSymbolTableRecord
100
AcDbLinetypeTableRecord
  2
BATTING
 70
     0
  3
Batting SSSSSSSSSSSSSSSSSSSSSSSSSSSSSSSSSSSSSSS
 72
    65
 73
     4
 40
10.16253999999999
 49
0.00254
 74
     0
 49
-2.54
 74
     4
 75
   134
340
127
 46
2.54
 50
0.0
 44
-2.54
 45
0.0
 49
-5.08
 74
     4
 75
   134
340
127
 46
2.54
 50
180.0
 44
2.54
 45
0.0
 49
-2.54
 74
     0
  0
LTYPE
  5
137
330
5
100
AcDbSymbolTableRecord
100
AcDbLinetypeTableRecord
  2
BORDER
 70
     0
  3
Border __ __ . __ __ . __ __ . __ __ . __ __ .
 72
    65
 73
     6
 40
44.45
 49
12.7
 74
     0
 49
-6.349999999999999
 74
     0
 49
12.7
 74
     0
 49
-6.349999999999999
 74
     0
 49
0.0
 74
     0
 49
-6.349999999999999
 74
     0
  0
LTYPE
  5
138
330
5
100
AcDbSymbolTableRecord
100
AcDbLinetypeTableRecord
  2
BORDER2
 70
     0
  3
Border (.5x) __.__.__.__.__.__.__.__.__.__.__.
 72
    65
 73
     6
 40
22.225
 49
6.349999999999999
 74
     0
 49
-3.174999999999999
 74
     0
 49
6.349999999999999
 74
     0
 49
-3.174999999999999
 74
     0
 49
0.0
 74
     0
 49
-3.174999999999999
 74
     0
  0
LTYPE
  5
139
330
5
100
AcDbSymbolTableRecord
100
AcDbLinetypeTableRecord
  2
BORDERX2
 70
     0
  3
Border (2x) ____  ____  .  ____  ____  .  ___
 72
    65
 73
     6
 40
88.9
 49
25.4
 74
     0
 49
-12.7
 74
     0
 49
25.4
 74
     0
 49
-12.7
 74
     0
 49
0.0
 74
     0
 49
-12.7
 74
     0
  0
LTYPE
  5
13A
330
5
100
AcDbSymbolTableRecord
100
AcDbLinetypeTableRecord
  2
CENTER
 70
     0
  3
Center ____ _ ____ _ ____ _ ____ _ ____ _ ____
 72
    65
 73
     4
 40
50.8
 49
31.75
 74
     0
 49
-6.349999999999999
 74
     0
 49
6.349999999999999
 74
     0
 49
-6.349999999999999
 74
     0
  0
LTYPE
  5
13B
330
5
100
AcDbSymbolTableRecord
100
AcDbLinetypeTableRecord
  2
CENTER2
 70
     0
  3
Center (.5x) ___ _ ___ _ ___ _ ___ _ ___ _ ___
 72
    65
 73
     4
 40
28.57499999999999
 49
19.05
 74
     0
 49
-3.174999999999999
 74
     0
 49
3.174999999999999
 74
     0
 49
-3.174999999999999
 74
     0
  0
LTYPE
  5
13C
330
5
100
AcDbSymbolTableRecord
100
AcDbLinetypeTableRecord
  2
CENTERX2
 70
     0
  3
Center (2x) ________  __  ________  __  _____
 72
    65
 73
     4
 40
101.6
 49
63.5
 74
     0
 49
-12.7
 74
     0
 49
12.7
 74
     0
 49
-12.7
 74
     0
  0
LTYPE
  5
13D
330
5
100
AcDbSymbolTableRecord
100
AcDbLinetypeTableRecord
  2
DASHDOT
 70
     0
  3
Dash dot __ . __ . __ . __ . __ . __ . __ . __
 72
    65
 73
     4
 40
25.4
 49
12.7
 74
     0
 49
-6.349999999999999
 74
     0
 49
0.0
 74
     0
 49
-6.349999999999999
 74
     0
  0
LTYPE
  5
13E
330
5
100
AcDbSymbolTableRecord
100
AcDbLinetypeTableRecord
  2
DASHDOT2
 70
     0
  3
Dash dot (.5x) _._._._._._._._._._._._._._._.
 72
    65
 73
     4
 40
12.7
 49
6.349999999999999
 74
     0
 49
-3.174999999999999
 74
     0
 49
0.0
 74
     0
 49
-3.174999999999999
 74
     0
  0
LTYPE
  5
13F
330
5
100
AcDbSymbolTableRecord
100
AcDbLinetypeTableRecord
  2
DASHDOTX2
 70
     0
  3
Dash dot (2x) ____  .  ____  .  ____  .  ___
 72
    65
 73
     4
 40
50.8
 49
25.4
 74
     0
 49
-12.7
 74
     0
 49
0.0
 74
     0
 49
-12.7
 74
     0
  0
LTYPE
  5
140
330
5
100
AcDbSymbolTableRecord
100
AcDbLinetypeTableRecord
  2
DASHED
 70
     0
  3
Dashed __ __ __ __ __ __ __ __ __ __ __ __ __ _
 72
    65
 73
     2
 40
19.04999999999999
 49
12.7
 74
     0
 49
-6.349999999999999
 74
     0
  0
LTYPE
  5
141
330
5
100
AcDbSymbolTableRecord
100
AcDbLinetypeTableRecord
  2
DASHED2
 70
     0
  3
Dashed (.5x) _ _ _ _ _ _ _ _ _ _ _ _ _ _ _ _ _
 72
    65
 73
     2
 40
9.524999999999998
 49
6.349999999999999
 74
     0
 49
-3.174999999999999
 74
     0
  0
LTYPE
  5
142
330
5
100
AcDbSymbolTableRecord
100
AcDbLinetypeTableRecord
  2
DASHEDX2
 70
     0
  3
Dashed (2x) ____  ____  ____  ____  ____  ___
 72
    65
 73
     2
 40
38.09999999999999
 49
25.4
 74
     0
 49
-12.7
 74
     0
  0
LTYPE
  5
143
330
5
100
AcDbSymbolTableRecord
100
AcDbLinetypeTableRecord
  2
DIVIDE
 70
     0
  3
Divide ____ . . ____ . . ____ . . ____ . . ____
 72
    65
 73
     6
 40
31.74999999999999
 49
12.7
 74
     0
 49
-6.349999999999999
 74
     0
 49
0.0
 74
     0
 49
-6.349999999999999
 74
     0
 49
0.0
 74
     0
 49
-6.349999999999999
 74
     0
  0
LTYPE
  5
144
330
5
100
AcDbSymbolTableRecord
100
AcDbLinetypeTableRecord
  2
DIVIDE2
 70
     0
  3
Divide (.5x) __..__..__..__..__..__..__..__.._
 72
    65
 73
     6
 40
15.87499999999999
 49
6.349999999999999
 74
     0
 49
-3.174999999999999
 74
     0
 49
0.0
 74
     0
 49
-3.174999999999999
 74
     0
 49
0.0
 74
     0
 49
-3.174999999999999
 74
     0
  0
LTYPE
  5
145
330
5
100
AcDbSymbolTableRecord
100
AcDbLinetypeTableRecord
  2
DIVIDEX2
 70
     0
  3
Divide (2x) ________  .  .  ________  .  .  _
 72
    65
 73
     6
 40
63.49999999999999
 49
25.4
 74
     0
 49
-12.7
 74
     0
 49
0.0
 74
     0
 49
-12.7
 74
     0
 49
0.0
 74
     0
 49
-12.7
 74
     0
  0
LTYPE
  5
146
330
5
100
AcDbSymbolTableRecord
100
AcDbLinetypeTableRecord
  2
DOT
 70
     0
  3
Dot . . . . . . . . . . . . . . . . . . . . . .
 72
    65
 73
     2
 40
6.349999999999999
 49
0.0
 74
     0
 49
-6.349999999999999
 74
     0
  0
LTYPE
  5
147
330
5
100
AcDbSymbolTableRecord
100
AcDbLinetypeTableRecord
  2
DOT2
 70
     0
  3
Dot (.5x) .....................................
 72
    65
 73
     2
 40
3.174999999999999
 49
0.0
 74
     0
 49
-3.174999999999999
 74
     0
  0
LTYPE
  5
148
330
5
100
AcDbSymbolTableRecord
100
AcDbLinetypeTableRecord
  2
DOTX2
 70
     0
  3
Dot (2x) .  .  .  .  .  .  .  .  .  .  .  .  . 
 72
    65
 73
     2
 40
12.7
 49
0.0
 74
     0
 49
-12.7
 74
     0
  0
LTYPE
  5
149
330
5
100
AcDbSymbolTableRecord
100
AcDbLinetypeTableRecord
  2
FENCELINE1
 70
     0
  3
Fenceline circle ----0-----0----0-----0----0---
 72
    65
 73
     4
 40
36.82999999999999
 49
6.349999999999999
 74
     0
 49
-2.54
 74
     4
 75
   133
340
127
 46
2.54
 50
0.0
 44
-2.54
 45
0.0
 49
-2.54
 74
     0
 49
25.4
 74
     0
  0
LTYPE
  5
14A
330
5
100
AcDbSymbolTableRecord
100
AcDbLinetypeTableRecord
  2
FENCELINE2
 70
     0
  3
Fenceline square ----[]-----[]----[]-----[]----
 72
    65
 73
     4
 40
36.82999999999999
 49
6.349999999999999
 74
     0
 49
-2.54
 74
     4
 75
   132
340
127
 46
2.54
 50
0.0
 44
-2.54
 45
0.0
 49
-2.54
 74
     0
 49
25.4
 74
     0
  0
LTYPE
  5
14B
330
5
100
AcDbSymbolTableRecord
100
AcDbLinetypeTableRecord
  2
GAS_LINE
 70
     0
  3
Gas line ----GAS----GAS----GAS----GAS----GAS---
 72
    65
 73
     3
 40
24.13
 49
12.7
 74
     0
 49
-5.08
 74
     2
 75
     0
340
F
 46
2.54
 50
0.0
 44
-2.54
 45
-1.27
  9
GAS
 49
-6.349999999999999
 74
     0
  0
LTYPE
  5
14C
330
5
100
AcDbSymbolTableRecord
100
AcDbLinetypeTableRecord
  2
HIDDEN
 70
     0
  3
Hidden __ __ __ __ __ __ __ __ __ __ __ __ __ _
 72
    65
 73
     2
 40
9.524999999999998
 49
6.349999999999999
 74
     0
 49
-3.174999999999999
 74
     0
  0
LTYPE
  5
14D
330
5
100
AcDbSymbolTableRecord
100
AcDbLinetypeTableRecord
  2
HIDDEN2
 70
     0
  3
Hidden (.5x) _ _ _ _ _ _ _ _ _ _ _ _ _ _ _ _ _
 72
    65
 73
     2
 40
4.762499999999999
 49
3.174999999999999
 74
     0
 49
-1.587499999999999
 74
     0
  0
LTYPE
  5
14E
330
5
100
AcDbSymbolTableRecord
100
AcDbLinetypeTableRecord
  2
HIDDENX2
 70
     0
  3
Hidden (2x) ____ ____ ____ ____ ____ ____ ____
 72
    65
 73
     2
 40
19.04999999999999
 49
12.7
 74
     0
 49
-6.349999999999999
 74
     0
  0
LTYPE
  5
14F
330
5
100
AcDbSymbolTableRecord
100
AcDbLinetypeTableRecord
  2
HOT_WATER_SUPPLY
 70
     0
  3
Hot water supply ---- HW ---- HW ---- HW ----
 72
    65
 73
     3
 40
22.86
 49
12.7
 74
     0
 49
-5.08
 74
     2
 75
     0
340
F
 46
2.54
 50
0.0
 44
-2.54
 45
-1.27
  9
HW
 49
-5.08
 74
     0
  0
LTYPE
  5
150
330
5
100
AcDbSymbolTableRecord
100
AcDbLinetypeTableRecord
  2
PHANTOM
 70
     0
  3
Phantom ______  __  __  ______  __  __  ______
 72
    65
 73
     6
 40
63.5
 49
31.75
 74
     0
 49
-6.349999999999999
 74
     0
 49
6.349999999999999
 74
     0
 49
-6.349999999999999
 74
     0
 49
6.349999999999999
 74
     0
 49
-6.349999999999999
 74
     0
  0
LTYPE
  5
151
330
5
100
AcDbSymbolTableRecord
100
AcDbLinetypeTableRecord
  2
PHANTOM2
 70
     0
  3
Phantom (.5x) ___ _ _ ___ _ _ ___ _ _ ___ _ _
 72
    65
 73
     6
 40
31.75
 49
15.875
 74
     0
 49
-3.174999999999999
 74
     0
 49
3.174999999999999
 74
     0
 49
-3.174999999999999
 74
     0
 49
3.174999999999999
 74
     0
 49
-3.174999999999999
 74
     0
  0
LTYPE
  5
152
330
5
100
AcDbSymbolTableRecord
100
AcDbLinetypeTableRecord
  2
PHANTOMX2
 70
     0
  3
Phantom (2x) ____________    ____    ____   _
 72
    65
 73
     6
 40
127.0
 49
63.5
 74
     0
 49
-12.7
 74
     0
 49
12.7
 74
     0
 49
-12.7
 74
     0
 49
12.7
 74
     0
 49
-12.7
 74
     0
  0
LTYPE
  5
153
330
5
100
AcDbSymbolTableRecord
100
AcDbLinetypeTableRecord
  2
TRACKS
 70
     0
  3
Tracks -|-|-|-|-|-|-|-|-|-|-|-|-|-|-|-|-|-|-|-|
 72
    65
 73
     2
 40
7.62
 49
3.81
 74
     4
 75
   130
340
127
 46
6.349999999999999
 50
0.0
 44
0.0
 45
0.0
 49
3.81
 74
     0
  0
LTYPE
  5
154
330
5
100
AcDbSymbolTableRecord
100
AcDbLinetypeTableRecord
  2
ZIGZAG
 70
     0
  3
Zig zag /\/\/\/\/\/\/\/\/\/\/\/\/\/\/\/\/\/\/\/
 72
    65
 73
     4
 40
20.32254
 49
0.00254
 74
     0
 49
-5.08
 74
     4
 75
   131
340
127
 46
5.08
 50
0.0
 44
-5.08
 45
0.0
 49
-10.16
 74
     4
 75
   131
340
127
 46
5.08
 50
180.0
 44
5.08
 45
0.0
 49
-5.08
 74
     0
  0
ENDTAB
  0
TABLE
  2
LAYER
  5
2
330
0
100
AcDbSymbolTable
 70
     9
  0
LAYER
  5
E
330
2
100
AcDbSymbolTableRecord
100
AcDbLayerTableRecord
  2
0
 70
     0
 62
     7
  6
CONTINUOUS
370
    -3
390
15FD
  0
LAYER
  5
20
330
2
100
AcDbSymbolTableRecord
100
AcDbLayerTableRecord
  2
DEFPOINTS
 70
     0
 62
     7
  6
CONTINUOUS
290
     0
370
    -3
390
15FD
  0
LAYER
  5
21
330
2
100
AcDbSymbolTableRecord
100
AcDbLayerTableRecord
  2
OBJECT
 70
     0
 62
     7
  6
CONTINUOUS
370
    -3
390
15FD
  0
LAYER
  5
155
330
2
100
AcDbSymbolTableRecord
100
AcDbLayerTableRecord
  2
上書線
 70
     0
 62
     7
  6
CONTINUOUS
370
    -3
390
15FD
  0
LAYER
  5
156
330
2
100
AcDbSymbolTableRecord
100
AcDbLayerTableRecord
  2
基準線
 70
     0
 62
    -1
  6
CONTINUOUS
370
    -3
390
15FD
  0
LAYER
  5
157
330
2
100
AcDbSymbolTableRecord
100
AcDbLayerTableRecord
  2
点線
 70
     0
 62
     5
  6
HIDDEN
370
    -3
390
15FD
  0
LAYER
  5
158
330
2
100
AcDbSymbolTableRecord
100
AcDbLayerTableRecord
  2
寸法線
 70
     0
 62
     2
  6
CONTINUOUS
370
    -3
390
15FD
  0
LAYER
  5
19D7
330
2
100
AcDbSymbolTableRecord
100
AcDbLayerTableRecord
  2
上線
 70
     0
 62
     7
  6
CONTINUOUS
370
    -3
390
15FD
  0
LAYER
  5
26BB
330
2
100
AcDbSymbolTableRecord
100
AcDbLayerTableRecord
  2
WUWAGAKI
 70
     0
 62
     7
  6
CONTINUOUS
370
    -3
390
15FD
  0
ENDTAB
  0
TABLE
  2
STYLE
  5
3
330
0
100
AcDbSymbolTable
 70
     3
  0
STYLE
  5
F
330
3
100
AcDbSymbolTableRecord
100
AcDbTextStyleTableRecord
  2
STANDARD
 70
     0
 40
0.0
 41
1.0
 50
0.0
 71
     0
 42
2.5
  3
MS PMincho.ttf
  4

1001
ACAD
1000
MS PMincho
1071
    32786
  0
STYLE
  5
22
330
3
100
AcDbSymbolTableRecord
100
AcDbTextStyleTableRecord
  2
ADESK1
 70
     0
 40
0.0
 41
1.0
 50
0.0
 71
     0
 42
5.0
  3
romans
  4
bigfont
  0
STYLE
  5
127
330
3
100
AcDbSymbolTableRecord
100
AcDbTextStyleTableRecord
  2

 70
     1
 40
0.0
 41
1.0
 50
0.0
 71
     0
 42
2.5
  3
ltypeshp.shx
  4

  0
ENDTAB
  0
TABLE
  2
VIEW
  5
6
330
0
100
AcDbSymbolTable
 70
     0
  0
ENDTAB
  0
TABLE
  2
UCS
  5
7
330
0
100
AcDbSymbolTable
 70
     0
  0
ENDTAB
  0
TABLE
  2
APPID
  5
9
330
0
100
AcDbSymbolTable
 70
     2
  0
APPID
  5
10
330
9
100
AcDbSymbolTableRecord
100
AcDbRegAppTableRecord
  2
ACAD
 70
     0
  0
APPID
  5
1213
330
9
100
AcDbSymbolTableRecord
100
AcDbRegAppTableRecord
  2
DRAWINGVARIABLESXDATA
 70
     0
  0
ENDTAB
  0
TABLE
  2
DIMSTYLE
  5
A
330
0
100
AcDbSymbolTable
 70
     2
100
AcDbDimStyleTable
 71
     1
340
1D
  0
DIMSTYLE
105
1D
330
A
100
AcDbSymbolTableRecord
100
AcDbDimStyleTableRecord
  2
STANDARD
 70
     0
340
F
  0
DIMSTYLE
105
23
330
A
100
AcDbSymbolTableRecord
100
AcDbDimStyleTableRecord
  2
JIS
 70
     0
 41
2.5
 42
1.0
 43
7.0
 44
1.0
 73
     0
 74
     0
 77
     1
 78
     8
140
2.5
141
0.0
143
0.0394
147
0.0
172
     1
174
     1
175
     1
340
F
  0
ENDTAB
  0
TABLE
  2
BLOCK_RECORD
  5
1
330
0
100
AcDbSymbolTable
 70
     1
  0
BLOCK_RECORD
  5
18
330
1
100
AcDbSymbolTableRecord
100
AcDbBlockTableRecord
  2
*MODEL_SPACE
340
1600
  0
BLOCK_RECORD
  5
15
330
1
100
AcDbSymbolTableRecord
100
AcDbBlockTableRecord
  2
*PAPER_SPACE
340
1601
  0
BLOCK_RECORD
  5
24
330
1
100
AcDbSymbolTableRecord
100
AcDbBlockTableRecord
  2
JIS_A4L
340
0
  0
ENDTAB
  0
ENDSEC
  0
SECTION
  2
BLOCKS
  0
BLOCK
  5
19
330
18
100
AcDbEntity
  8
0
100
AcDbBlockBegin
  2
*MODEL_SPACE
 70
     2
 10
0.0
 20
0.0
 30
0.0
  3
*MODEL_SPACE
  1

  0
ENDBLK
  5
1A
330
18
100
AcDbEntity
  8
0
100
AcDbBlockEnd
  0
BLOCK
  5
16
330
15
100
AcDbEntity
 67
     1
  8
0
100
AcDbBlockBegin
  2
*PAPER_SPACE
 70
     0
 10
0.0
 20
0.0
 30
0.0
  3
*PAPER_SPACE
  1

  0
ENDBLK
  5
17
330
15
100
AcDbEntity
 67
     1
  8
0
100
AcDbBlockEnd
  0
BLOCK
  5
A1
330
24
100
AcDbEntity
  8
0
100
AcDbBlockBegin
  2
JIS_A4L
 70
     2
 10
0.0
 20
0.0
 30
0.0
  3
JIS_A4L
  1

  0
LINE
  5
25
330
24
100
AcDbEntity
  8
0
100
AcDbLine
 10
0.0
 20
0.0
 30
0.0
 11
0.0
 21
10.0
 31
0.0
  0
LINE
  5
26
330
24
100
AcDbEntity
  8
0
100
AcDbLine
 10
0.0
 20
210.0
 30
0.0
 11
25.0
 21
210.0
 31
0.0
  0
LINE
  5
27
330
24
100
AcDbEntity
  8
0
100
AcDbLine
 10
297.0
 20
210.0
 30
0.0
 11
297.0
 21
200.0
 31
0.0
  0
LINE
  5
28
330
24
100
AcDbEntity
  8
0
100
AcDbLine
 10
297.0
 20
0.0
 30
0.0
 11
287.0
 21
0.0
 31
0.0
  0
LINE
  5
29
330
24
100
AcDbEntity
  8
0
100
AcDbLine
 10
25.0
 20
10.0
 30
0.0
 11
25.0
 21
200.0
 31
0.0
  0
LINE
  5
2A
330
24
100
AcDbEntity
  8
0
100
AcDbLine
 10
287.0
 20
10.0
 30
0.0
 11
25.0
 21
10.0
 31
0.0
  0
LINE
  5
2B
330
24
100
AcDbEntity
  8
0
100
AcDbLine
 10
287.0
 20
200.0
 30
0.0
 11
287.0
 21
10.0
 31
0.0
  0
LINE
  5
2C
330
24
100
AcDbEntity
  8
0
100
AcDbLine
 10
25.0
 20
200.0
 30
0.0
 11
287.0
 21
200.0
 31
0.0
  0
LINE
  5
2D
330
24
100
AcDbEntity
  8
0
100
AcDbLine
 10
0.0
 20
200.0
 30
0.0
 11
0.0
 21
210.0
 31
0.0
  0
LINE
  5
2E
330
24
100
AcDbEntity
  8
0
100
AcDbLine
 10
25.0
 20
0.0
 30
0.0
 11
0.0
 21
0.0
 31
0.0
  0
LINE
  5
2F
330
24
100
AcDbEntity
  8
0
100
AcDbLine
 10
297.0
 20
10.0
 30
0.0
 11
297.0
 21
0.0
 31
0.0
  0
LINE
  5
30
330
24
100
AcDbEntity
  8
0
100
AcDbLine
 10
287.0
 20
210.0
 30
0.0
 11
297.0
 21
210.0
 31
0.0
  0
ATTDEF
  5
31
330
24
100
AcDbEntity
  8
0
 62
     0
100
AcDbText
 10
19.0
 20
10.0
 30
0.0
 40
3.0
  1

 50
90.0
  7
ADESK1
100
AcDbAttributeDefinition
  3

  2
USER
 70
     8
  0
ATTDEF
  5
32
330
24
100
AcDbEntity
  8
0
 62
     0
100
AcDbText
 10
19.0
 20
70.0
 30
0.0
 40
3.0
  1

 50
90.0
  7
ADESK1
100
AcDbAttributeDefinition
  3

  2
REVDATE
 70
     8
  0
ATTDEF
  5
33
330
24
100
AcDbEntity
  8
0
 62
     0
100
AcDbText
 10
19.0
 20
118.0
 30
0.0
 40
3.0
  1

 50
90.0
  7
ADESK1
100
AcDbAttributeDefinition
  3

  2
FNAME
 70
     8
  0
LINE
  5
34
330
24
100
AcDbEntity
  8
OBJECT
100
AcDbLine
 10
130.0
 20
16.0
 30
0.0
 11
25.0
 21
16.0
 31
0.0
  0
LINE
  5
35
330
24
100
AcDbEntity
  8
OBJECT
100
AcDbLine
 10
130.0
 20
22.0
 30
0.0
 11
25.0
 21
22.0
 31
0.0
  0
LINE
  5
36
330
24
100
AcDbEntity
  8
OBJECT
100
AcDbLine
 10
130.0
 20
28.0
 30
0.0
 11
25.0
 21
28.0
 31
0.0
  0
LINE
  5
37
330
24
100
AcDbEntity
  8
OBJECT
100
AcDbLine
 10
130.0
 20
34.0
 30
0.0
 11
25.0
 21
34.0
 31
0.0
  0
LINE
  5
38
330
24
100
AcDbEntity
  8
OBJECT
100
AcDbLine
 10
130.0
 20
40.0
 30
0.0
 11
25.0
 21
40.0
 31
0.0
  0
LINE
  5
39
330
24
100
AcDbEntity
  8
OBJECT
100
AcDbLine
 10
28.0
 20
11.53589799999999
 30
0.0
 11
30.0
 21
15.0
 31
0.0
  0
LINE
  5
3A
330
24
100
AcDbEntity
  8
OBJECT
100
AcDbLine
 10
32.0
 20
11.53589799999999
 30
0.0
 11
30.0
 21
15.0
 31
0.0
  0
LINE
  5
3B
330
24
100
AcDbEntity
  8
OBJECT
100
AcDbLine
 10
35.0
 20
10.0
 30
0.0
 11
35.0
 21
40.0
 31
0.0
  0
LINE
  5
3C
330
24
100
AcDbEntity
  8
OBJECT
100
AcDbLine
 10
50.0
 20
10.0
 30
0.0
 11
50.0
 21
40.0
 31
0.0
  0
LINE
  5
3D
330
24
100
AcDbEntity
  8
OBJECT
100
AcDbLine
 10
80.0
 20
10.0
 30
0.0
 11
80.0
 21
40.0
 31
0.0
  0
LINE
  5
3E
330
24
100
AcDbEntity
  8
OBJECT
100
AcDbLine
 10
28.0
 20
11.53589799999999
 30
0.0
 11
32.0
 21
11.53589799999999
 31
0.0
  0
LINE
  5
3F
330
24
100
AcDbEntity
  8
OBJECT
100
AcDbLine
 10
39.5
 20
13.0
 30
0.0
 11
40.49999999999999
 21
13.0
 31
0.0
  0
LINE
  5
40
330
24
100
AcDbEntity
  8
OBJECT
100
AcDbLine
 10
44.5
 20
13.0
 30
0.0
 11
45.49999999999999
 21
13.0
 31
0.0
  0
LINE
  5
41
330
24
100
AcDbEntity
  8
OBJECT
100
AcDbLine
 10
32.0
 20
17.535898
 30
0.0
 11
30.0
 21
20.99999999999999
 31
0.0
  0
LINE
  5
42
330
24
100
AcDbEntity
  8
OBJECT
100
AcDbLine
 10
28.0
 20
17.535898
 30
0.0
 11
32.0
 21
17.535898
 31
0.0
  0
LINE
  5
43
330
24
100
AcDbEntity
  8
OBJECT
100
AcDbLine
 10
28.0
 20
17.535898
 30
0.0
 11
30.0
 21
20.99999999999999
 31
0.0
  0
LINE
  5
44
330
24
100
AcDbEntity
  8
OBJECT
100
AcDbLine
 10
32.0
 20
23.53589799999999
 30
0.0
 11
30.0
 21
26.99999999999999
 31
0.0
  0
LINE
  5
45
330
24
100
AcDbEntity
  8
OBJECT
100
AcDbLine
 10
28.0
 20
23.53589799999999
 30
0.0
 11
32.0
 21
23.53589799999999
 31
0.0
  0
LINE
  5
46
330
24
100
AcDbEntity
  8
OBJECT
100
AcDbLine
 10
28.0
 20
23.53589799999999
 30
0.0
 11
30.0
 21
26.99999999999999
 31
0.0
  0
LINE
  5
47
330
24
100
AcDbEntity
  8
OBJECT
100
AcDbLine
 10
28.0
 20
35.53589799999999
 30
0.0
 11
30.0
 21
39.0
 31
0.0
  0
LINE
  5
48
330
24
100
AcDbEntity
  8
OBJECT
100
AcDbLine
 10
32.0
 20
35.53589799999999
 30
0.0
 11
30.0
 21
39.0
 31
0.0
  0
LINE
  5
49
330
24
100
AcDbEntity
  8
OBJECT
100
AcDbLine
 10
28.0
 20
35.53589799999999
 30
0.0
 11
32.0
 21
35.53589799999999
 31
0.0
  0
LINE
  5
4A
330
24
100
AcDbEntity
  8
OBJECT
100
AcDbLine
 10
32.0
 20
29.53589799999999
 30
0.0
 11
30.0
 21
33.0
 31
0.0
  0
LINE
  5
4B
330
24
100
AcDbEntity
  8
OBJECT
100
AcDbLine
 10
28.0
 20
29.53589799999999
 30
0.0
 11
32.0
 21
29.53589799999999
 31
0.0
  0
LINE
  5
4C
330
24
100
AcDbEntity
  8
OBJECT
100
AcDbLine
 10
28.0
 20
29.53589799999999
 30
0.0
 11
30.0
 21
33.0
 31
0.0
  0
LINE
  5
4D
330
24
100
AcDbEntity
  8
OBJECT
100
AcDbLine
 10
39.5
 20
19.0
 30
0.0
 11
40.49999999999999
 21
19.0
 31
0.0
  0
LINE
  5
4E
330
24
100
AcDbEntity
  8
OBJECT
100
AcDbLine
 10
44.5
 20
19.0
 30
0.0
 11
45.49999999999999
 21
19.0
 31
0.0
  0
LINE
  5
4F
330
24
100
AcDbEntity
  8
OBJECT
100
AcDbLine
 10
39.5
 20
25.0
 30
0.0
 11
40.49999999999999
 21
25.0
 31
0.0
  0
LINE
  5
50
330
24
100
AcDbEntity
  8
OBJECT
100
AcDbLine
 10
44.5
 20
25.0
 30
0.0
 11
45.49999999999999
 21
25.0
 31
0.0
  0
LINE
  5
51
330
24
100
AcDbEntity
  8
OBJECT
100
AcDbLine
 10
39.5
 20
31.0
 30
0.0
 11
40.49999999999999
 21
31.0
 31
0.0
  0
LINE
  5
52
330
24
100
AcDbEntity
  8
OBJECT
100
AcDbLine
 10
39.5
 20
37.0
 30
0.0
 11
40.49999999999999
 21
37.0
 31
0.0
  0
LINE
  5
53
330
24
100
AcDbEntity
  8
OBJECT
100
AcDbLine
 10
44.5
 20
31.0
 30
0.0
 11
45.49999999999999
 21
31.0
 31
0.0
  0
LINE
  5
54
330
24
100
AcDbEntity
  8
OBJECT
100
AcDbLine
 10
44.5
 20
37.0
 30
0.0
 11
45.49999999999999
 21
37.0
 31
0.0
  0
LINE
  5
55
330
24
100
AcDbEntity
  8
OBJECT
100
AcDbLine
 10
120.0
 20
10.0
 30
0.0
 11
120.0
 21
40.0
 31
0.0
  0
LINE
  5
56
330
24
100
AcDbEntity
  8
OBJECT
100
AcDbLine
 10
130.0
 20
40.0
 30
0.0
 11
130.0
 21
10.0
 31
0.0
  0
LINE
  5
57
330
24
100
AcDbEntity
  8
0
100
AcDbLine
 10
156.0
 20
10.0
 30
0.0
 11
156.0
 21
0.0
 31
0.0
  0
LINE
  5
58
330
24
100
AcDbEntity
  8
0
100
AcDbLine
 10
156.0
 20
200.0
 30
0.0
 11
156.0
 21
210.0
 31
0.0
  0
LINE
  5
59
330
24
100
AcDbEntity
  8
0
100
AcDbLine
 10
287.0
 20
105.0
 30
0.0
 11
297.0
 21
105.0
 31
0.0
  0
LINE
  5
5A
330
24
100
AcDbEntity
  8
0
100
AcDbLine
 10
25.0
 20
105.0
 30
0.0
 11
0.0
 21
105.0
 31
0.0
  0
TEXT
  5
5B
330
24
100
AcDbEntity
  8
0
100
AcDbText
 10
1.0
 20
1.0
 30
0.0
 40
3.0
  1
この図枠はサンプルです。社内の規格やプロッタの出力範囲に合わせて適当に変更してご利用ください。
  7
ADESK1
100
AcDbText
  0
LINE
  5
5C
330
24
100
AcDbEntity
  8
0
100
AcDbLine
 10
25.0
 20
152.5
 30
0.0
 11
20.0
 21
152.5
 31
0.0
  0
LINE
  5
5D
330
24
100
AcDbEntity
  8
0
100
AcDbLine
 10
25.0
 20
105.0
 30
0.0
 11
20.0
 21
105.0
 31
0.0
  0
LINE
  5
5E
330
24
100
AcDbEntity
  8
0
100
AcDbLine
 10
25.0
 20
57.5
 30
0.0
 11
20.0
 21
57.5
 31
0.0
  0
LINE
  5
5F
330
24
100
AcDbEntity
  8
0
100
AcDbLine
 10
68.66666666666668
 20
10.0
 30
0.0
 11
68.66666666666668
 21
5.0
 31
0.0
  0
LINE
  5
60
330
24
100
AcDbEntity
  8
0
100
AcDbLine
 10
112.3333333333333
 20
10.0
 30
0.0
 11
112.3333333333333
 21
5.0
 31
0.0
  0
LINE
  5
61
330
24
100
AcDbEntity
  8
0
100
AcDbLine
 10
156.0
 20
10.0
 30
0.0
 11
156.0
 21
5.0
 31
0.0
  0
LINE
  5
62
330
24
100
AcDbEntity
  8
0
100
AcDbLine
 10
199.6666666666666
 20
10.0
 30
0.0
 11
199.6666666666666
 21
5.0
 31
0.0
  0
LINE
  5
63
330
24
100
AcDbEntity
  8
0
100
AcDbLine
 10
243.3333333333333
 20
10.0
 30
0.0
 11
243.3333333333333
 21
5.0
 31
0.0
  0
LINE
  5
64
330
24
100
AcDbEntity
  8
0
100
AcDbLine
 10
287.0
 20
57.5
 30
0.0
 11
292.0
 21
57.5
 31
0.0
  0
LINE
  5
65
330
24
100
AcDbEntity
  8
0
100
AcDbLine
 10
287.0
 20
105.0
 30
0.0
 11
292.0
 21
105.0
 31
0.0
  0
LINE
  5
66
330
24
100
AcDbEntity
  8
0
100
AcDbLine
 10
287.0
 20
152.5
 30
0.0
 11
292.0
 21
152.5
 31
0.0
  0
LINE
  5
67
330
24
100
AcDbEntity
  8
0
100
AcDbLine
 10
243.3333333333333
 20
200.0
 30
0.0
 11
243.3333333333333
 21
205.0
 31
0.0
  0
LINE
  5
68
330
24
100
AcDbEntity
  8
0
100
AcDbLine
 10
199.6666666666666
 20
200.0
 30
0.0
 11
199.6666666666666
 21
205.0
 31
0.0
  0
LINE
  5
69
330
24
100
AcDbEntity
  8
0
100
AcDbLine
 10
156.0
 20
200.0
 30
0.0
 11
156.0
 21
205.0
 31
0.0
  0
LINE
  5
6A
330
24
100
AcDbEntity
  8
0
100
AcDbLine
 10
112.3333333333333
 20
200.0
 30
0.0
 11
112.3333333333333
 21
205.0
 31
0.0
  0
LINE
  5
6B
330
24
100
AcDbEntity
  8
0
100
AcDbLine
 10
68.66666666666666
 20
200.0
 30
0.0
 11
68.66666666666666
 21
205.0
 31
0.0
  0
TEXT
  5
6C
330
24
100
AcDbEntity
  8
0
100
AcDbText
 10
45.61904761904761
 20
201.0
 30
0.0
 40
3.0
  1
1
  7
ADESK1
 72
     1
 11
46.83333333333332
 21
201.0
 31
0.0
100
AcDbText
  0
TEXT
  5
6D
330
24
100
AcDbEntity
  8
0
100
AcDbText
 10
21.66139736003921
 20
176.25
 30
0.0
 40
3.0
  1
A
  7
ADESK1
 72
     1
 11
22.94711164575349
 21
176.25
 31
0.0
100
AcDbText
  0
TEXT
  5
6E
330
24
100
AcDbEntity
  8
0
100
AcDbText
 10
89.07142857142856
 20
201.0
 30
0.0
 40
3.0
  1
2
  7
ADESK1
 72
     1
 11
90.5
 21
201.0
 31
0.0
100
AcDbText
  0
TEXT
  5
6F
330
24
100
AcDbEntity
  8
0
100
AcDbText
 10
132.7380952380952
 20
201.0
 30
0.0
 40
3.0
  1
3
  7
ADESK1
 72
     1
 11
134.1666666666666
 21
201.0
 31
0.0
100
AcDbText
  0
TEXT
  5
70
330
24
100
AcDbEntity
  8
0
100
AcDbText
 10
176.3333333333333
 20
201.0
 30
0.0
 40
3.0
  1
4
  7
ADESK1
 72
     1
 11
177.8333333333333
 21
201.0
 31
0.0
100
AcDbText
  0
TEXT
  5
71
330
24
100
AcDbEntity
  8
0
100
AcDbText
 10
220.0714285714286
 20
201.0
 30
0.0
 40
3.0
  1
5
  7
ADESK1
 72
     1
 11
221.4999999999999
 21
201.0
 31
0.0
100
AcDbText
  0
TEXT
  5
72
330
24
100
AcDbEntity
  8
0
100
AcDbText
 10
263.6666666666666
 20
201.0
 30
0.0
 40
3.0
  1
6
  7
ADESK1
 72
     1
 11
265.1666666666666
 21
201.0
 31
0.0
100
AcDbText
  0
TEXT
  5
73
330
24
100
AcDbEntity
  8
0
100
AcDbText
 10
21.37568307432492
 20
128.75
 30
0.0
 40
3.0
  1
B
  7
ADESK1
 72
     1
 11
22.94711164575349
 21
128.75
 31
0.0
100
AcDbText
  0
TEXT
  5
74
330
24
100
AcDbEntity
  8
0
100
AcDbText
 10
21.44711164575349
 20
81.25
 30
0.0
 40
3.0
  1
C
  7
ADESK1
 72
     1
 11
22.94711164575349
 21
81.25
 31
0.0
100
AcDbText
  0
TEXT
  5
75
330
24
100
AcDbEntity
  8
0
100
AcDbText
 10
21.37568307432492
 20
33.75
 30
0.0
 40
3.0
  1
D
  7
ADESK1
 72
     1
 11
22.94711164575349
 21
33.75
 31
0.0
100
AcDbText
  0
TEXT
  5
76
330
24
100
AcDbEntity
  8
0
100
AcDbText
 10
45.61904761904759
 20
6.230338100985607
 30
0.0
 40
3.0
  1
1
  7
ADESK1
 72
     1
 11
46.83333333333331
 21
6.230338100985607
 31
0.0
100
AcDbText
  0
TEXT
  5
77
330
24
100
AcDbEntity
  8
0
100
AcDbText
 10
89.07142857142856
 20
6.230338100985607
 30
0.0
 40
3.0
  1
2
  7
ADESK1
 72
     1
 11
90.5
 21
6.230338100985607
 31
0.0
100
AcDbText
  0
TEXT
  5
78
330
24
100
AcDbEntity
  8
0
100
AcDbText
 10
132.7380952380952
 20
6.230338100985607
 30
0.0
 40
3.0
  1
3
  7
ADESK1
 72
     1
 11
134.1666666666666
 21
6.230338100985607
 31
0.0
100
AcDbText
  0
TEXT
  5
79
330
24
100
AcDbEntity
  8
0
100
AcDbText
 10
176.3333333333333
 20
6.230338100985607
 30
0.0
 40
3.0
  1
4
  7
ADESK1
 72
     1
 11
177.8333333333333
 21
6.230338100985607
 31
0.0
100
AcDbText
  0
TEXT
  5
7A
330
24
100
AcDbEntity
  8
0
100
AcDbText
 10
220.0714285714286
 20
6.230338100985607
 30
0.0
 40
3.0
  1
5
  7
ADESK1
 72
     1
 11
221.4999999999999
 21
6.230338100985607
 31
0.0
100
AcDbText
  0
TEXT
  5
7B
330
24
100
AcDbEntity
  8
0
100
AcDbText
 10
263.6666666666666
 20
6.230338100985607
 30
0.0
 40
3.0
  1
6
  7
ADESK1
 72
     1
 11
265.1666666666666
 21
6.230338100985607
 31
0.0
100
AcDbText
  0
TEXT
  5
7C
330
24
100
AcDbEntity
  8
0
100
AcDbText
 10
287.9530581679809
 20
176.25
 30
0.0
 40
3.0
  1
A
  7
ADESK1
 72
     1
 11
289.2387724536952
 21
176.25
 31
0.0
100
AcDbText
  0
TEXT
  5
7D
330
24
100
AcDbEntity
  8
0
100
AcDbText
 10
287.6673438822666
 20
128.75
 30
0.0
 40
3.0
  1
B
  7
ADESK1
 72
     1
 11
289.2387724536952
 21
128.75
 31
0.0
100
AcDbText
  0
TEXT
  5
7E
330
24
100
AcDbEntity
  8
0
100
AcDbText
 10
287.7387724536952
 20
81.25
 30
0.0
 40
3.0
  1
C
  7
ADESK1
 72
     1
 11
289.2387724536952
 21
81.25
 31
0.0
100
AcDbText
  0
TEXT
  5
7F
330
24
100
AcDbEntity
  8
0
100
AcDbText
 10
287.6673438822666
 20
33.75
 30
0.0
 40
3.0
  1
D
  7
ADESK1
 72
     1
 11
289.2387724536952
 21
33.75
 31
0.0
100
AcDbText
  0
LINE
  5
80
330
24
100
AcDbEntity
  8
0
 62
     0
100
AcDbLine
 10
157.2978723404242
 20
49.00000000000036
 30
0.0
 11
287.0
 21
49.00000000000036
 31
0.0
  0
LINE
  5
81
330
24
100
AcDbEntity
  8
0
 62
     0
100
AcDbLine
 10
157.2978723404242
 20
13.00000000000004
 30
0.0
 11
287.0
 21
13.00000000000004
 31
0.0
  0
LINE
  5
82
330
24
100
AcDbEntity
  8
0
 62
     0
100
AcDbLine
 10
157.2978723404242
 20
37.00000000000024
 30
0.0
 11
287.0
 21
37.00000000000024
 31
0.0
  0
LINE
  5
83
330
24
100
AcDbEntity
  8
0
 62
     0
100
AcDbLine
 10
195.1276595744673
 20
22.00000000000012
 30
0.0
 11
287.0
 21
22.00000000000012
 31
0.0
  0
LINE
  5
84
330
24
100
AcDbEntity
  8
0
 62
     0
100
AcDbLine
 10
157.2978723404242
 20
10.0
 30
0.0
 11
287.0
 21
10.0
 31
0.0
  0
LINE
  5
85
330
24
100
AcDbEntity
  8
0
 62
     0
100
AcDbLine
 10
287.0
 20
49.00000000000036
 30
0.0
 11
157.2978723404242
 21
49.00000000000036
 31
0.0
  0
LINE
  5
86
330
24
100
AcDbEntity
  8
0
 62
     0
100
AcDbLine
 10
180.7163120567365
 20
37.00000000000024
 30
0.0
 11
180.7163120567365
 21
10.0
 31
0.0
  0
LINE
  5
87
330
24
100
AcDbEntity
  8
0
 62
     0
100
AcDbLine
 10
162.702127659573
 20
37.00000000000024
 30
0.0
 11
162.702127659573
 21
10.0
 31
0.0
  0
LINE
  5
88
330
24
100
AcDbEntity
  8
0
 62
     0
100
AcDbLine
 10
189.7234042553184
 20
37.00000000000024
 30
0.0
 11
189.7234042553184
 21
10.0
 31
0.0
  0
LINE
  5
89
330
24
100
AcDbEntity
  8
0
 62
     0
100
AcDbLine
 10
195.1276595744673
 20
25.00000000000012
 30
0.0
 11
195.1276595744673
 21
10.0
 31
0.0
  0
LINE
  5
8A
330
24
100
AcDbEntity
  8
0
 62
     0
100
AcDbLine
 10
157.2978723404242
 20
49.00000000000036
 30
0.0
 11
157.2978723404242
 21
10.0
 31
0.0
  0
LINE
  5
8B
330
24
100
AcDbEntity
  8
0
 62
     0
100
AcDbLine
 10
225.7517730496447
 20
49.00000000000036
 30
0.0
 11
225.7517730496447
 21
10.0
 31
0.0
  0
LINE
  5
8C
330
24
100
AcDbEntity
  8
0
 62
     0
100
AcDbLine
 10
205.7659574468077
 20
22.00000000000007
 30
0.0
 11
205.7659574468077
 21
10.0
 31
0.0
  0
LINE
  5
8D
330
24
100
AcDbEntity
  8
0
 62
     0
100
AcDbLine
 10
216.4042553191484
 20
22.00000000000007
 30
0.0
 11
216.4042553191484
 21
10.0
 31
0.0
  0
LINE
  5
8E
330
24
100
AcDbEntity
  8
0
 62
     0
100
AcDbLine
 10
157.2978723404242
 20
16.00000000000008
 30
0.0
 11
195.1276595744673
 21
16.00000000000008
 31
0.0
  0
LINE
  5
8F
330
24
100
AcDbEntity
  8
0
 62
     0
100
AcDbLine
 10
157.2978723404242
 20
10.0
 30
0.0
 11
157.2978723404242
 21
13.00000000000004
 31
0.0
  0
TEXT
  5
90
330
24
100
AcDbEntity
  8
0
 62
     0
100
AcDbText
 10
198.7174935280942
 20
10.48329012996929
 30
0.0
 40
1.791674070777747
  1
製図
  7
ADESK1
 72
     1
 11
200.5688900678978
 21
10.48329012996929
 31
0.0
100
AcDbText
  0
TEXT
  5
91
330
24
100
AcDbEntity
  8
0
 62
     0
100
AcDbText
 10
209.2960689314087
 20
10.48329012996929
 30
0.0
 40
1.791674070777747
  1
設計
  7
ADESK1
 72
     1
 11
211.2071879402383
 21
10.48329012996929
 31
0.0
100
AcDbText
  0
TEXT
  5
92
330
24
100
AcDbEntity
  8
0
 62
     0
100
AcDbText
 10
219.2447163844405
 20
10.55220101068186
 30
0.0
 40
1.791674070777747
  1
照査
  7
ADESK1
 72
     1
 11
221.1558353932701
 21
10.55220101068186
 31
0.0
100
AcDbText
  0
LINE
  5
93
330
24
100
AcDbEntity
  8
0
 62
     0
100
AcDbLine
 10
157.2978723404242
 20
25.00000000000012
 30
0.0
 11
195.1276595744673
 21
25.00000000000012
 31
0.0
  0
LINE
  5
94
330
24
100
AcDbEntity
  8
0
 62
     0
100
AcDbLine
 10
157.2978723404242
 20
22.00000000000007
 30
0.0
 11
195.1276595744673
 21
22.00000000000012
 31
0.0
  0
LINE
  5
95
330
24
100
AcDbEntity
  8
0
 62
     0
100
AcDbLine
 10
157.2978723404242
 20
19.00000000000007
 30
0.0
 11
195.1276595744673
 21
19.00000000000012
 31
0.0
  0
LINE
  5
96
330
24
100
AcDbEntity
  8
0
 62
     0
100
AcDbLine
 10
157.2978723404242
 20
34.00000000000024
 30
0.0
 11
225.7517730496447
 21
34.00000000000024
 31
0.0
  0
LINE
  5
97
330
24
100
AcDbEntity
  8
0
 62
     0
100
AcDbLine
 10
157.2978723404242
 20
31.0000000000002
 30
0.0
 11
225.7517730496447
 21
31.0000000000002
 31
0.0
  0
LINE
  5
98
330
24
100
AcDbEntity
  8
0
 62
     0
100
AcDbLine
 10
157.2978723404242
 20
28.00000000000015
 30
0.0
 11
225.7517730496447
 21
28.00000000000015
 31
0.0
  0
LINE
  5
99
330
24
100
AcDbEntity
  8
0
 62
     0
100
AcDbLine
 10
195.1276595744673
 20
25.00000000000012
 30
0.0
 11
225.7517730496447
 21
25.00000000000012
 31
0.0
  0
LINE
  5
9A
330
24
100
AcDbEntity
  8
0
 62
     0
100
AcDbLine
 10
195.1276595744673
 20
49.00000000000036
 30
0.0
 11
195.1276595744673
 21
25.00000000000012
 31
0.0
  0
LINE
  5
9B
330
24
100
AcDbEntity
  8
0
 62
     0
100
AcDbLine
 10
202.3333333333325
 20
37.00000000000024
 30
0.0
 11
202.3333333333325
 21
25.00000000000012
 31
0.0
  0
LINE
  5
9C
330
24
100
AcDbEntity
  8
0
 62
     0
100
AcDbLine
 10
213.1418439716305
 20
49.00000000000036
 30
0.0
 11
213.1418439716305
 21
22.00000000000012
 31
0.0
  0
LINE
  5
9D
330
24
100
AcDbEntity
  8
0
 62
     0
100
AcDbLine
 10
279.7943262411347
 20
22.00000000000012
 30
0.0
 11
279.7943262411347
 21
10.0
 31
0.0
  0
LINE
  5
9E
330
24
100
AcDbEntity
  8
0
 62
     0
100
AcDbLine
 10
287.0
 20
49.00000000000036
 30
0.0
 11
287.0
 21
10.0
 31
0.0
  0
LINE
  5
9F
330
24
100
AcDbEntity
  8
0
 62
     0
100
AcDbLine
 10
287.0
 20
10.0
 30
0.0
 11
287.0
 21
49.00000000000036
 31
0.0
  0
LINE
  5
A0
330
24
100
AcDbEntity
  8
0
 62
     0
100
AcDbLine
 10
279.7943262411347
 20
16.00000000000008
 30
0.0
 11
287.0
 21
16.00000000000008
 31
0.0
  0
ENDBLK
  5
A2
330
24
100
AcDbEntity
  8
0
100
AcDbBlockEnd
  0
ENDSEC
  0
SECTION
  2
ENTITIES
  0
MTEXT
  5
938
330
18
100
AcDbEntity
  8
上書線
100
AcDbMText
 10
1865.739761775792
 20
499.0283937835011
 30
0.0
 40
37.5
 41
0.0
 71
     4
 72
     1
  1
\A1;
 73
     1
 44
1.0
  0
LINE
  5
123E
330
18
100
AcDbEntity
  8
基準線
100
AcDbLine
 10
710.0813698183028
 20
2117.506972677286
 30
0.0
 11
731.0813698183028
 21
2117.506972677286
 31
0.0
  0
LINE
  5
14BB
330
18
100
AcDbEntity
  8
基準線
100
AcDbLine
 10
1281.296189060135
 20
2744.451732006984
 30
0.0
 11
1631.12377476475
 21
2744.451732006984
 31
0.0
  0
LINE
  5
14BC
330
18
100
AcDbEntity
  8
基準線
100
AcDbLine
 10
1131.296189060135
 20
2594.451732006984
 30
0.0
 11
1604.134047986604
 21
2594.451732006984
 31
0.0
  0
LINE
  5
1546
330
18
100
AcDbEntity
  8
基準線
100
AcDbLine
 10
2000.40772718317
 20
1104.126411816217
 30
0.0
 11
2000.40772718317
 21
1262.163674897728
 31
0.0
  0
LINE
  5
154B
330
18
100
AcDbEntity
  8
基準線
100
AcDbLine
 10
2550.40772718317
 20
1049.126411816217
 30
0.0
 11
2550.40772718317
 21
1211.614819254876
 31
0.0
  0
LINE
  5
154C
330
18
100
AcDbEntity
  8
基準線
100
AcDbLine
 10
2150.40772718317
 20
1049.126411816217
 30
0.0
 11
2150.40772718317
 21
1226.779475202555
 31
0.0
  0
LINE
  5
15CA
330
18
100
AcDbEntity
  8
基準線
100
AcDbLine
 10
3419.935833980378
 20
2804.85492986955
 30
0.0
 11
3776.432100616551
 21
2804.85492986955
 31
0.0
  0
LINE
  5
15CC
330
18
100
AcDbEntity
  8
基準線
100
AcDbLine
 10
3776.432100616551
 20
2804.85492986955
 30
0.0
 11
4171.357345948922
 21
2804.85492986955
 31
0.0
  0
LINE
  5
15D0
330
18
100
AcDbEntity
  8
基準線
100
AcDbLine
 10
3419.935833980378
 20
2684.85492986955
 30
0.0
 11
3776.432100616551
 21
2684.85492986955
 31
0.0
  0
LINE
  5
15D1
330
18
100
AcDbEntity
  8
基準線
100
AcDbLine
 10
3598.183967298465
 20
2684.85492986955
 30
0.0
 11
3598.183967298465
 21
984.8549298695507
 31
0.0
  0
LINE
  5
15D2
330
18
100
AcDbEntity
  8
基準線
100
AcDbLine
 10
3776.432100616551
 20
2484.854929869551
 30
0.0
 11
4171.357345948921
 21
2484.85492986955
 31
0.0
  0
LINE
  5
15D3
330
18
100
AcDbEntity
  8
基準線
100
AcDbLine
 10
3973.894723282737
 20
2684.854929869551
 30
0.0
 11
3973.894723282734
 21
984.8549298695507
 31
0.0
  0
LINE
  5
15D4
330
18
100
AcDbEntity
  8
基準線
100
AcDbLine
 10
3419.935833980378
 20
2684.85492986955
 30
0.0
 11
3419.935833980378
 21
2584.85492986955
 31
0.0
  0
LINE
  5
15D5
330
18
100
AcDbEntity
  8
基準線
100
AcDbLine
 10
3419.935833980378
 20
2634.85492986955
 30
0.0
 11
4114.659436953616
 21
2634.85492986955
 31
0.0
  0
LINE
  5
1A8A
330
18
100
AcDbEntity
  8
OBJECT
100
AcDbLine
 10
5864.577428728146
 20
5537.940679121543
 30
0.0
 11
5864.577428728146
 21
5653.740679121544
 31
0.0
  0
LINE
  5
1A8B
330
18
100
AcDbEntity
  8
OBJECT
100
AcDbLine
 10
5862.077428728146
 20
5537.940679121543
 30
0.0
 11
5862.077428728146
 21
5653.740679121544
 31
0.0
  0
LINE
  5
1A8C
330
18
100
AcDbEntity
  8
OBJECT
100
AcDbLine
 10
5880.827449360329
 20
5537.940687572944
 30
0.0
 11
5880.827449360329
 21
5653.740687572944
 31
0.0
  0
LINE
  5
1A8D
330
18
100
AcDbEntity
  8
OBJECT
100
AcDbLine
 10
5883.327449360329
 20
5537.940687572944
 30
0.0
 11
5883.327449360329
 21
5653.740687572944
 31
0.0
  0
LINE
  5
1A8E
330
18
100
AcDbEntity
  8
OBJECT
100
AcDbLine
 10
5920.827490624695
 20
5537.940696024343
 30
0.0
 11
5920.827490624695
 21
5653.740696024343
 31
0.0
  0
LINE
  5
1A8F
330
18
100
AcDbEntity
  8
OBJECT
100
AcDbLine
 10
5918.327490624695
 20
5537.940696024343
 30
0.0
 11
5918.327490624695
 21
5653.740696024343
 31
0.0
  0
LINE
  5
1A90
330
18
100
AcDbEntity
  8
OBJECT
100
AcDbLine
 10
5899.577469992512
 20
5537.940687572944
 30
0.0
 11
5899.577469992512
 21
5653.740687572944
 31
0.0
  0
LINE
  5
1A91
330
18
100
AcDbEntity
  8
OBJECT
100
AcDbLine
 10
5902.077469992512
 20
5537.940687572944
 30
0.0
 11
5902.077469992512
 21
5653.740687572944
 31
0.0
  0
LINE
  5
1A92
330
18
100
AcDbEntity
  8
OBJECT
100
AcDbLine
 10
5937.077511256878
 20
5537.940676948918
 30
0.0
 11
5937.077511256878
 21
5653.740676948918
 31
0.0
  0
LINE
  5
1A93
330
18
100
AcDbEntity
  8
OBJECT
100
AcDbLine
 10
5939.577511256878
 20
5537.940676948918
 30
0.0
 11
5939.577511256878
 21
5653.740676948918
 31
0.0
  0
LINE
  5
1A94
330
18
100
AcDbEntity
  8
OBJECT
100
AcDbLine
 10
5789.577346199415
 20
5537.940687572944
 30
0.0
 11
5789.577346199415
 21
5653.740687572944
 31
0.0
  0
LINE
  5
1A95
330
18
100
AcDbEntity
  8
OBJECT
100
AcDbLine
 10
5787.077346199414
 20
5537.940687572944
 30
0.0
 11
5787.077346199414
 21
5653.740687572944
 31
0.0
  0
LINE
  5
1A96
330
18
100
AcDbEntity
  8
OBJECT
100
AcDbLine
 10
5805.827366831597
 20
5537.940696024343
 30
0.0
 11
5805.827366831597
 21
5653.740696024343
 31
0.0
  0
LINE
  5
1A97
330
18
100
AcDbEntity
  8
OBJECT
100
AcDbLine
 10
5808.327366831598
 20
5537.940696024343
 30
0.0
 11
5808.327366831598
 21
5653.740696024343
 31
0.0
  0
LINE
  5
1A98
330
18
100
AcDbEntity
  8
OBJECT
100
AcDbLine
 10
5845.827408095964
 20
5537.940704475743
 30
0.0
 11
5845.827408095964
 21
5653.740704475743
 31
0.0
  0
LINE
  5
1A99
330
18
100
AcDbEntity
  8
OBJECT
100
AcDbLine
 10
5843.327408095963
 20
5537.940704475743
 30
0.0
 11
5843.327408095963
 21
5653.740704475743
 31
0.0
  0
LINE
  5
1A9A
330
18
100
AcDbEntity
  8
OBJECT
100
AcDbLine
 10
5824.57738746378
 20
5537.940696024343
 30
0.0
 11
5824.57738746378
 21
5653.740696024343
 31
0.0
  0
LINE
  5
1A9B
330
18
100
AcDbEntity
  8
OBJECT
100
AcDbLine
 10
5827.077387463781
 20
5537.940696024343
 30
0.0
 11
5827.077387463781
 21
5653.740696024343
 31
0.0
  0
LINE
  5
1A9C
330
18
100
AcDbEntity
  8
OBJECT
100
AcDbLine
 10
5752.077304935049
 20
5537.940698196969
 30
0.0
 11
5752.077304935049
 21
5653.740698196969
 31
0.0
  0
LINE
  5
1A9D
330
18
100
AcDbEntity
  8
OBJECT
100
AcDbLine
 10
5749.577304935049
 20
5537.940698196969
 30
0.0
 11
5749.577304935049
 21
5653.740698196969
 31
0.0
  0
LINE
  5
1A9E
330
18
100
AcDbEntity
  8
OBJECT
100
AcDbLine
 10
5768.327325567232
 20
5537.940706648369
 30
0.0
 11
5768.327325567232
 21
5653.74070664837
 31
0.0
  0
LINE
  5
1A9F
330
18
100
AcDbEntity
  8
OBJECT
100
AcDbLine
 10
5770.827325567232
 20
5537.940706648369
 30
0.0
 11
5770.827325567232
 21
5653.74070664837
 31
0.0
  0
LINE
  5
1AA0
330
18
100
AcDbEntity
  8
OBJECT
100
AcDbLine
 10
5733.327284302866
 20
5537.940698196969
 30
0.0
 11
5733.327284302866
 21
5653.740698196969
 31
0.0
  0
LINE
  5
1AA1
330
18
100
AcDbEntity
  8
OBJECT
100
AcDbLine
 10
5730.827284302866
 20
5537.940698196969
 30
0.0
 11
5730.827284302866
 21
5653.740698196969
 31
0.0
  0
LINE
  5
1AA2
330
18
100
AcDbEntity
  8
OBJECT
100
AcDbLine
 10
5693.327253675284
 20
5537.940698196969
 30
0.0
 11
5693.327253675284
 21
5653.740698196969
 31
0.0
  0
LINE
  5
1AA3
330
18
100
AcDbEntity
  8
OBJECT
100
AcDbLine
 10
5712.077263670683
 20
5537.940689745569
 30
0.0
 11
5712.077263670683
 21
5653.74068974557
 31
0.0
  0
LINE
  5
1AA4
330
18
100
AcDbEntity
  8
OBJECT
100
AcDbLine
 10
5714.577263670683
 20
5537.940689745569
 30
0.0
 11
5714.577263670683
 21
5653.74068974557
 31
0.0
  0
LINE
  5
1AA5
330
18
100
AcDbEntity
  8
OBJECT
100
AcDbLine
 10
5695.827253675283
 20
5537.940698196969
 30
0.0
 11
5695.827253675283
 21
5653.740698196969
 31
0.0
  0
LINE
  5
1AAC
330
18
100
AcDbEntity
  8
OBJECT
100
AcDbLine
 10
6352.077961632645
 20
5537.940685400317
 30
0.0
 11
6352.077961632645
 21
5653.740685400317
 31
0.0
  0
LINE
  5
1AAD
330
18
100
AcDbEntity
  8
OBJECT
100
AcDbLine
 10
6349.577961632644
 20
5537.940685400317
 30
0.0
 11
6349.577961632644
 21
5653.740685400317
 31
0.0
  0
LINE
  5
1AAE
330
18
100
AcDbEntity
  8
OBJECT
100
AcDbLine
 10
6368.327982264827
 20
5537.940693851718
 30
0.0
 11
6368.327982264827
 21
5653.740693851718
 31
0.0
  0
LINE
  5
1AAF
330
18
100
AcDbEntity
  8
OBJECT
100
AcDbLine
 10
6370.827982264827
 20
5537.940693851718
 30
0.0
 11
6370.827982264827
 21
5653.740693851718
 31
0.0
  0
LINE
  5
1AB0
330
18
100
AcDbEntity
  8
OBJECT
100
AcDbLine
 10
6408.328023529193
 20
5537.940702303117
 30
0.0
 11
6408.328023529193
 21
5653.740702303117
 31
0.0
  0
LINE
  5
1AB1
330
18
100
AcDbEntity
  8
OBJECT
100
AcDbLine
 10
6405.828023529193
 20
5537.940702303117
 30
0.0
 11
6405.828023529193
 21
5653.740702303117
 31
0.0
  0
LINE
  5
1AB2
330
18
100
AcDbEntity
  8
OBJECT
100
AcDbLine
 10
6387.07800289701
 20
5537.940693851718
 30
0.0
 11
6387.07800289701
 21
5653.740693851718
 31
0.0
  0
LINE
  5
1AB3
330
18
100
AcDbEntity
  8
OBJECT
100
AcDbLine
 10
6389.57800289701
 20
5537.940693851718
 30
0.0
 11
6389.57800289701
 21
5653.740693851718
 31
0.0
  0
LINE
  5
1AB4
330
18
100
AcDbEntity
  8
OBJECT
100
AcDbLine
 10
6314.577920368279
 20
5537.940696024343
 30
0.0
 11
6314.577920368279
 21
5653.740696024343
 31
0.0
  0
LINE
  5
1AB5
330
18
100
AcDbEntity
  8
OBJECT
100
AcDbLine
 10
6312.077920368278
 20
5537.940696024343
 30
0.0
 11
6312.077920368278
 21
5653.740696024343
 31
0.0
  0
LINE
  5
1AB6
330
18
100
AcDbEntity
  8
OBJECT
100
AcDbLine
 10
6330.827941000461
 20
5537.940704475743
 30
0.0
 11
6330.827941000461
 21
5653.740704475743
 31
0.0
  0
LINE
  5
1AB7
330
18
100
AcDbEntity
  8
OBJECT
100
AcDbLine
 10
6333.327941000462
 20
5537.940704475743
 30
0.0
 11
6333.327941000462
 21
5653.740704475743
 31
0.0
  0
LINE
  5
1ABA
330
18
100
AcDbEntity
  8
OBJECT
100
AcDbLine
 10
6502.078126690108
 20
5600.766849735464
 30
0.0
 11
6502.078126690108
 21
5653.740685400317
 31
0.0
  0
LINE
  5
1ABB
330
18
100
AcDbEntity
  8
OBJECT
100
AcDbLine
 10
6499.578126690107
 20
5598.266849735464
 30
0.0
 11
6499.578126690107
 21
5653.740685400317
 31
0.0
  0
LINE
  5
1ABC
330
18
100
AcDbEntity
  8
OBJECT
100
AcDbLine
 10
6518.32814732229
 20
5617.016870367647
 30
0.0
 11
6518.32814732229
 21
5653.740693851718
 31
0.0
  0
LINE
  5
1ABD
330
18
100
AcDbEntity
  8
OBJECT
100
AcDbLine
 10
6520.828147322291
 20
5619.516870367647
 30
0.0
 11
6520.828147322291
 21
5653.740693851718
 31
0.0
  0
LINE
  5
1AC0
330
18
100
AcDbEntity
  8
OBJECT
100
AcDbLine
 10
6537.078167954473
 20
5635.76689099983
 30
0.0
 11
6537.078167954473
 21
5653.740693851718
 31
0.0
  0
LINE
  5
1AC1
330
18
100
AcDbEntity
  8
OBJECT
100
AcDbLine
 10
6539.578167954473
 20
5638.26689099983
 30
0.0
 11
6539.578167954473
 21
5653.740693851718
 31
0.0
  0
LINE
  5
1AC2
330
18
100
AcDbEntity
  8
OBJECT
100
AcDbLine
 10
6464.578085425742
 20
5563.266808471098
 30
0.0
 11
6464.578085425742
 21
5653.740696024343
 31
0.0
  0
LINE
  5
1AC3
330
18
100
AcDbEntity
  8
OBJECT
100
AcDbLine
 10
6462.078085425742
 20
5560.766808471099
 30
0.0
 11
6462.078085425742
 21
5653.740696024343
 31
0.0
  0
LINE
  5
1AC4
330
18
100
AcDbEntity
  8
OBJECT
100
AcDbLine
 10
6480.828106057924
 20
5579.516829103281
 30
0.0
 11
6480.828106057924
 21
5653.740704475743
 31
0.0
  0
LINE
  5
1AC5
330
18
100
AcDbEntity
  8
OBJECT
100
AcDbLine
 10
6483.328106057925
 20
5582.016829103281
 30
0.0
 11
6483.328106057925
 21
5653.740704475743
 31
0.0
  0
LINE
  5
1AC6
330
18
100
AcDbEntity
  8
OBJECT
100
AcDbLine
 10
6445.828064793559
 20
5544.516787838915
 30
0.0
 11
6445.828064793559
 21
5653.740696024343
 31
0.0
  0
LINE
  5
1AC7
330
18
100
AcDbEntity
  8
OBJECT
100
AcDbLine
 10
6443.328064793559
 20
5542.016787838916
 30
0.0
 11
6443.328064793559
 21
5653.740696024343
 31
0.0
  0
LINE
  5
1AC8
330
18
100
AcDbEntity
  8
OBJECT
100
AcDbLine
 10
6424.578044161376
 20
5537.940687572944
 30
0.0
 11
6424.578044161376
 21
5653.740687572944
 31
0.0
  0
LINE
  5
1AC9
330
18
100
AcDbEntity
  8
OBJECT
100
AcDbLine
 10
6427.078044161376
 20
5537.940687572944
 30
0.0
 11
6427.078044161376
 21
5653.740687572944
 31
0.0
  0
LINE
  5
1ACA
330
18
100
AcDbEntity
  8
OBJECT
100
AcDbLine
 10
6014.57759378561
 20
5537.940679121543
 30
0.0
 11
6014.57759378561
 21
5653.740679121544
 31
0.0
  0
LINE
  5
1ACB
330
18
100
AcDbEntity
  8
OBJECT
100
AcDbLine
 10
6012.077593785609
 20
5537.940679121543
 30
0.0
 11
6012.077593785609
 21
5653.740679121544
 31
0.0
  0
LINE
  5
1ACC
330
18
100
AcDbEntity
  8
OBJECT
100
AcDbLine
 10
6030.827614417792
 20
5537.940687572944
 30
0.0
 11
6030.827614417792
 21
5653.740687572944
 31
0.0
  0
LINE
  5
1ACD
330
18
100
AcDbEntity
  8
OBJECT
100
AcDbLine
 10
6033.327614417792
 20
5537.940687572944
 30
0.0
 11
6033.327614417792
 21
5653.740687572944
 31
0.0
  0
LINE
  5
1ACE
330
18
100
AcDbEntity
  8
OBJECT
100
AcDbLine
 10
6070.827655682158
 20
5537.940696024343
 30
0.0
 11
6070.827655682158
 21
5653.740696024343
 31
0.0
  0
LINE
  5
1ACF
330
18
100
AcDbEntity
  8
OBJECT
100
AcDbLine
 10
6068.327655682158
 20
5537.940696024343
 30
0.0
 11
6068.327655682158
 21
5653.740696024343
 31
0.0
  0
LINE
  5
1AD0
330
18
100
AcDbEntity
  8
OBJECT
100
AcDbLine
 10
6049.577635049975
 20
5537.940687572944
 30
0.0
 11
6049.577635049975
 21
5653.740687572944
 31
0.0
  0
LINE
  5
1AD1
330
18
100
AcDbEntity
  8
OBJECT
100
AcDbLine
 10
6052.077635049975
 20
5537.940687572944
 30
0.0
 11
6052.077635049975
 21
5653.740687572944
 31
0.0
  0
LINE
  5
1AD2
330
18
100
AcDbEntity
  8
OBJECT
100
AcDbLine
 10
6127.077717578707
 20
5537.940685400317
 30
0.0
 11
6127.077717578707
 21
5653.740685400317
 31
0.0
  0
LINE
  5
1AD3
330
18
100
AcDbEntity
  8
OBJECT
100
AcDbLine
 10
6124.577717578707
 20
5537.940685400317
 30
0.0
 11
6124.577717578707
 21
5653.740685400317
 31
0.0
  0
LINE
  5
1AD4
330
18
100
AcDbEntity
  8
OBJECT
100
AcDbLine
 10
6143.327738210889
 20
5537.940693851718
 30
0.0
 11
6143.327738210889
 21
5653.740693851718
 31
0.0
  0
LINE
  5
1AD5
330
18
100
AcDbEntity
  8
OBJECT
100
AcDbLine
 10
6145.82773821089
 20
5537.940693851718
 30
0.0
 11
6145.82773821089
 21
5653.740693851718
 31
0.0
  0
LINE
  5
1AD6
330
18
100
AcDbEntity
  8
OBJECT
100
AcDbLine
 10
6108.327696946524
 20
5537.940685400317
 30
0.0
 11
6108.327696946524
 21
5653.740685400317
 31
0.0
  0
LINE
  5
1AD7
330
18
100
AcDbEntity
  8
OBJECT
100
AcDbLine
 10
6105.827696946524
 20
5537.940685400317
 30
0.0
 11
6105.827696946524
 21
5653.740685400317
 31
0.0
  0
LINE
  5
1AD8
330
18
100
AcDbEntity
  8
OBJECT
100
AcDbLine
 10
6087.077676314341
 20
5537.940676948918
 30
0.0
 11
6087.077676314341
 21
5653.740676948918
 31
0.0
  0
LINE
  5
1AD9
330
18
100
AcDbEntity
  8
OBJECT
100
AcDbLine
 10
6089.577676314341
 20
5537.940676948918
 30
0.0
 11
6089.577676314341
 21
5653.740676948918
 31
0.0
  0
LINE
  5
1ADA
330
18
100
AcDbEntity
  8
OBJECT
100
AcDbLine
 10
6239.577841371804
 20
5537.940666324892
 30
0.0
 11
6239.577841371804
 21
5653.740666324893
 31
0.0
  0
LINE
  5
1ADB
330
18
100
AcDbEntity
  8
OBJECT
100
AcDbLine
 10
6237.077841371804
 20
5537.940666324892
 30
0.0
 11
6237.077841371804
 21
5653.740666324893
 31
0.0
  0
LINE
  5
1ADC
330
18
100
AcDbEntity
  8
OBJECT
100
AcDbLine
 10
6255.827862003987
 20
5537.940674776292
 30
0.0
 11
6255.827862003987
 21
5653.740674776293
 31
0.0
  0
LINE
  5
1ADD
330
18
100
AcDbEntity
  8
OBJECT
100
AcDbLine
 10
6258.327862003987
 20
5537.940674776292
 30
0.0
 11
6258.327862003987
 21
5653.740674776293
 31
0.0
  0
LINE
  5
1ADE
330
18
100
AcDbEntity
  8
OBJECT
100
AcDbLine
 10
6295.827903268353
 20
5537.940683227692
 30
0.0
 11
6295.827903268353
 21
5653.740683227692
 31
0.0
  0
LINE
  5
1ADF
330
18
100
AcDbEntity
  8
OBJECT
100
AcDbLine
 10
6293.327903268353
 20
5537.940683227692
 30
0.0
 11
6293.327903268353
 21
5653.740683227692
 31
0.0
  0
LINE
  5
1AE0
330
18
100
AcDbEntity
  8
OBJECT
100
AcDbLine
 10
6274.57788263617
 20
5537.940674776292
 30
0.0
 11
6274.57788263617
 21
5653.740674776293
 31
0.0
  0
LINE
  5
1AE1
330
18
100
AcDbEntity
  8
OBJECT
100
AcDbLine
 10
6277.07788263617
 20
5537.940674776292
 30
0.0
 11
6277.07788263617
 21
5653.740674776293
 31
0.0
  0
LINE
  5
1AE2
330
18
100
AcDbEntity
  8
OBJECT
100
AcDbLine
 10
6202.077800107439
 20
5537.940676948918
 30
0.0
 11
6202.077800107439
 21
5653.740676948918
 31
0.0
  0
LINE
  5
1AE3
330
18
100
AcDbEntity
  8
OBJECT
100
AcDbLine
 10
6199.577800107438
 20
5537.940676948918
 30
0.0
 11
6199.577800107438
 21
5653.740676948918
 31
0.0
  0
LINE
  5
1AE4
330
18
100
AcDbEntity
  8
OBJECT
100
AcDbLine
 10
6218.327820739621
 20
5537.940685400317
 30
0.0
 11
6218.327820739621
 21
5653.740685400317
 31
0.0
  0
LINE
  5
1AE5
330
18
100
AcDbEntity
  8
OBJECT
100
AcDbLine
 10
6220.827820739621
 20
5537.940685400317
 30
0.0
 11
6220.827820739621
 21
5653.740685400317
 31
0.0
  0
LINE
  5
1AE6
330
18
100
AcDbEntity
  8
OBJECT
100
AcDbLine
 10
6183.327779475256
 20
5537.940676948918
 30
0.0
 11
6183.327779475256
 21
5653.740676948918
 31
0.0
  0
LINE
  5
1AE7
330
18
100
AcDbEntity
  8
OBJECT
100
AcDbLine
 10
6180.827779475255
 20
5537.940676948918
 30
0.0
 11
6180.827779475255
 21
5653.740676948918
 31
0.0
  0
LINE
  5
1AE8
330
18
100
AcDbEntity
  8
OBJECT
100
AcDbLine
 10
6162.077758843072
 20
5537.940668497519
 30
0.0
 11
6162.077758843072
 21
5653.740668497519
 31
0.0
  0
LINE
  5
1AE9
330
18
100
AcDbEntity
  8
OBJECT
100
AcDbLine
 10
6164.577758843073
 20
5537.940668497519
 30
0.0
 11
6164.577758843073
 21
5653.740668497519
 31
0.0
  0
LINE
  5
1AEA
330
18
100
AcDbEntity
  8
OBJECT
100
AcDbLine
 10
5977.077552521244
 20
5537.940685400317
 30
0.0
 11
5977.077552521244
 21
5653.740685400317
 31
0.0
  0
LINE
  5
1AEB
330
18
100
AcDbEntity
  8
OBJECT
100
AcDbLine
 10
5974.577552521243
 20
5537.940685400317
 30
0.0
 11
5974.577552521243
 21
5653.740685400317
 31
0.0
  0
LINE
  5
1AEC
330
18
100
AcDbEntity
  8
OBJECT
100
AcDbLine
 10
5993.327573153426
 20
5537.940693851718
 30
0.0
 11
5993.327573153426
 21
5653.740693851718
 31
0.0
  0
LINE
  5
1AED
330
18
100
AcDbEntity
  8
OBJECT
100
AcDbLine
 10
5995.827573153427
 20
5537.940693851718
 30
0.0
 11
5995.827573153427
 21
5653.740693851718
 31
0.0
  0
LINE
  5
1AEE
330
18
100
AcDbEntity
  8
OBJECT
100
AcDbLine
 10
5958.327531889061
 20
5537.940685400317
 30
0.0
 11
5958.327531889061
 21
5653.740685400317
 31
0.0
  0
LINE
  5
1AEF
330
18
100
AcDbEntity
  8
OBJECT
100
AcDbLine
 10
5955.82753188906
 20
5537.940685400317
 30
0.0
 11
5955.82753188906
 21
5653.740685400317
 31
0.0
  0
LINE
  5
1AF0
330
18
100
AcDbEntity
  8
OBJECT
100
AcDbLine
 10
6561.051975151613
 20
5659.740698196969
 30
0.0
 11
5671.051975151613
 21
5659.740698196969
 31
0.0
  0
LINE
  5
1AF1
330
18
100
AcDbEntity
  8
OBJECT
100
AcDbLine
 10
6555.051975151613
 20
5653.740698196969
 30
0.0
 11
5677.051975151613
 21
5653.740698196969
 31
0.0
  0
LINE
  5
1AF2
330
18
100
AcDbEntity
  8
OBJECT
100
AcDbLine
 10
6433.251975151614
 20
5531.94069819697
 30
0.0
 11
5677.051975151613
 21
5531.94069819697
 31
0.0
  0
LINE
  5
1AF3
330
18
100
AcDbEntity
  8
OBJECT
100
AcDbLine
 10
6439.251975151613
 20
5537.940698196971
 30
0.0
 11
5677.051975151613
 21
5537.940698196971
 31
0.0
  0
LINE
  5
1AF5
330
18
100
AcDbEntity
  8
OBJECT
100
AcDbLine
 10
6317.451975151614
 20
5416.140698196971
 30
0.0
 11
5677.051975151613
 21
5416.140698196971
 31
0.0
  0
LINE
  5
1AF6
330
18
100
AcDbEntity
  8
OBJECT
100
AcDbLine
 10
6311.451975151615
 20
5410.140698196972
 30
0.0
 11
5677.051975151613
 21
5410.140698196972
 31
0.0
  0
LINE
  5
1AF7
330
18
100
AcDbEntity
  8
OBJECT
100
AcDbLine
 10
5695.827253675283
 20
5531.940698196972
 30
0.0
 11
5695.827253675283
 21
5416.140698196971
 31
0.0
  0
LINE
  5
1AF8
330
18
100
AcDbEntity
  8
OBJECT
100
AcDbLine
 10
5714.577263670683
 20
5531.940706648372
 30
0.0
 11
5714.577263670683
 21
5416.140706648371
 31
0.0
  0
LINE
  5
1AF9
330
18
100
AcDbEntity
  8
OBJECT
100
AcDbLine
 10
5712.077263670683
 20
5531.940706648372
 30
0.0
 11
5712.077263670683
 21
5416.140706648371
 31
0.0
  0
LINE
  5
1AFA
330
18
100
AcDbEntity
  8
OBJECT
100
AcDbLine
 10
5693.327253675284
 20
5531.940698196972
 30
0.0
 11
5693.327253675284
 21
5416.140698196971
 31
0.0
  0
LINE
  5
1AFB
330
18
100
AcDbEntity
  8
OBJECT
100
AcDbLine
 10
5730.827284302866
 20
5531.940698196972
 30
0.0
 11
5730.827284302866
 21
5416.140698196971
 31
0.0
  0
LINE
  5
1AFC
330
18
100
AcDbEntity
  8
OBJECT
100
AcDbLine
 10
5733.327284302866
 20
5531.940698196972
 30
0.0
 11
5733.327284302866
 21
5416.140698196971
 31
0.0
  0
LINE
  5
1AFD
330
18
100
AcDbEntity
  8
OBJECT
100
AcDbLine
 10
5770.827325567232
 20
5531.940689745572
 30
0.0
 11
5770.827325567232
 21
5416.140689745572
 31
0.0
  0
LINE
  5
1AFE
330
18
100
AcDbEntity
  8
OBJECT
100
AcDbLine
 10
5768.327325567232
 20
5531.940689745572
 30
0.0
 11
5768.327325567232
 21
5416.140689745572
 31
0.0
  0
LINE
  5
1AFF
330
18
100
AcDbEntity
  8
OBJECT
100
AcDbLine
 10
5749.577304935049
 20
5531.940698196972
 30
0.0
 11
5749.577304935049
 21
5416.140698196971
 31
0.0
  0
LINE
  5
1B00
330
18
100
AcDbEntity
  8
OBJECT
100
AcDbLine
 10
5752.077304935049
 20
5531.940698196972
 30
0.0
 11
5752.077304935049
 21
5416.140698196971
 31
0.0
  0
LINE
  5
1B01
330
18
100
AcDbEntity
  8
OBJECT
100
AcDbLine
 10
5827.077387463781
 20
5531.940700369598
 30
0.0
 11
5827.077387463781
 21
5416.140700369598
 31
0.0
  0
LINE
  5
1B02
330
18
100
AcDbEntity
  8
OBJECT
100
AcDbLine
 10
5824.57738746378
 20
5531.940700369598
 30
0.0
 11
5824.57738746378
 21
5416.140700369598
 31
0.0
  0
LINE
  5
1B03
330
18
100
AcDbEntity
  8
OBJECT
100
AcDbLine
 10
5843.327408095963
 20
5531.940691918198
 30
0.0
 11
5843.327408095963
 21
5416.140691918198
 31
0.0
  0
LINE
  5
1B04
330
18
100
AcDbEntity
  8
OBJECT
100
AcDbLine
 10
5845.827408095964
 20
5531.940691918198
 30
0.0
 11
5845.827408095964
 21
5416.140691918198
 31
0.0
  0
LINE
  5
1B05
330
18
100
AcDbEntity
  8
OBJECT
100
AcDbLine
 10
5808.327366831598
 20
5531.940700369598
 30
0.0
 11
5808.327366831598
 21
5416.140700369598
 31
0.0
  0
LINE
  5
1B06
330
18
100
AcDbEntity
  8
OBJECT
100
AcDbLine
 10
5805.827366831597
 20
5531.940700369598
 30
0.0
 11
5805.827366831597
 21
5416.140700369598
 31
0.0
  0
LINE
  5
1B07
330
18
100
AcDbEntity
  8
OBJECT
100
AcDbLine
 10
5787.077346199414
 20
5531.940708820997
 30
0.0
 11
5787.077346199414
 21
5416.140708820996
 31
0.0
  0
LINE
  5
1B08
330
18
100
AcDbEntity
  8
OBJECT
100
AcDbLine
 10
5789.577346199415
 20
5531.940708820997
 30
0.0
 11
5789.577346199415
 21
5416.140708820996
 31
0.0
  0
LINE
  5
1B09
330
18
100
AcDbEntity
  8
OBJECT
100
AcDbLine
 10
5955.82753188906
 20
5531.940710993623
 30
0.0
 11
5955.82753188906
 21
5416.140710993623
 31
0.0
  0
LINE
  5
1B0A
330
18
100
AcDbEntity
  8
OBJECT
100
AcDbLine
 10
5958.327531889061
 20
5531.940710993623
 30
0.0
 11
5958.327531889061
 21
5416.140710993623
 31
0.0
  0
LINE
  5
1B0B
330
18
100
AcDbEntity
  8
OBJECT
100
AcDbLine
 10
5995.827573153427
 20
5531.940702542224
 30
0.0
 11
5995.827573153427
 21
5416.140702542223
 31
0.0
  0
LINE
  5
1B0C
330
18
100
AcDbEntity
  8
OBJECT
100
AcDbLine
 10
5993.327573153426
 20
5531.940702542224
 30
0.0
 11
5993.327573153426
 21
5416.140702542223
 31
0.0
  0
LINE
  5
1B0D
330
18
100
AcDbEntity
  8
OBJECT
100
AcDbLine
 10
5974.577552521243
 20
5531.940710993623
 30
0.0
 11
5974.577552521243
 21
5416.140710993623
 31
0.0
  0
LINE
  5
1B0E
330
18
100
AcDbEntity
  8
OBJECT
100
AcDbLine
 10
5977.077552521244
 20
5531.940710993623
 30
0.0
 11
5977.077552521244
 21
5416.140710993623
 31
0.0
  0
LINE
  5
1B0F
330
18
100
AcDbEntity
  8
OBJECT
100
AcDbLine
 10
6030.827614417792
 20
5531.940708820997
 30
0.0
 11
6030.827614417792
 21
5416.140708820996
 31
0.0
  0
LINE
  5
1B10
330
18
100
AcDbEntity
  8
OBJECT
100
AcDbLine
 10
6012.077593785609
 20
5531.940717272398
 30
0.0
 11
6012.077593785609
 21
5416.140717272397
 31
0.0
  0
LINE
  5
1B11
330
18
100
AcDbEntity
  8
OBJECT
100
AcDbLine
 10
6014.57759378561
 20
5531.940717272398
 30
0.0
 11
6014.57759378561
 21
5416.140717272397
 31
0.0
  0
LINE
  5
1B12
330
18
100
AcDbEntity
  8
OBJECT
100
AcDbLine
 10
5939.577511256878
 20
5531.940719445024
 30
0.0
 11
5939.577511256878
 21
5416.140719445023
 31
0.0
  0
LINE
  5
1B13
330
18
100
AcDbEntity
  8
OBJECT
100
AcDbLine
 10
5937.077511256878
 20
5531.940719445024
 30
0.0
 11
5937.077511256878
 21
5416.140719445023
 31
0.0
  0
LINE
  5
1B14
330
18
100
AcDbEntity
  8
OBJECT
100
AcDbLine
 10
5902.077469992512
 20
5531.940708820997
 30
0.0
 11
5902.077469992512
 21
5416.140708820996
 31
0.0
  0
LINE
  5
1B15
330
18
100
AcDbEntity
  8
OBJECT
100
AcDbLine
 10
5899.577469992512
 20
5531.940708820997
 30
0.0
 11
5899.577469992512
 21
5416.140708820996
 31
0.0
  0
LINE
  5
1B16
330
18
100
AcDbEntity
  8
OBJECT
100
AcDbLine
 10
5918.327490624695
 20
5531.940700369598
 30
0.0
 11
5918.327490624695
 21
5416.140700369598
 31
0.0
  0
LINE
  5
1B17
330
18
100
AcDbEntity
  8
OBJECT
100
AcDbLine
 10
5920.827490624695
 20
5531.940700369598
 30
0.0
 11
5920.827490624695
 21
5416.140700369598
 31
0.0
  0
LINE
  5
1B18
330
18
100
AcDbEntity
  8
OBJECT
100
AcDbLine
 10
5883.327449360329
 20
5531.940708820997
 30
0.0
 11
5883.327449360329
 21
5416.140708820996
 31
0.0
  0
LINE
  5
1B19
330
18
100
AcDbEntity
  8
OBJECT
100
AcDbLine
 10
5880.827449360329
 20
5531.940708820997
 30
0.0
 11
5880.827449360329
 21
5416.140708820996
 31
0.0
  0
LINE
  5
1B1A
330
18
100
AcDbEntity
  8
OBJECT
100
AcDbLine
 10
5862.077428728146
 20
5531.940717272398
 30
0.0
 11
5862.077428728146
 21
5416.140717272397
 31
0.0
  0
LINE
  5
1B1B
330
18
100
AcDbEntity
  8
OBJECT
100
AcDbLine
 10
5864.577428728146
 20
5531.940717272398
 30
0.0
 11
5864.577428728146
 21
5416.140717272397
 31
0.0
  0
LINE
  5
1B1C
330
18
100
AcDbEntity
  8
OBJECT
100
AcDbLine
 10
6164.577758843073
 20
5531.940727896422
 30
0.0
 11
6164.577758843073
 21
5416.140727896422
 31
0.0
  0
LINE
  5
1B1D
330
18
100
AcDbEntity
  8
OBJECT
100
AcDbLine
 10
6162.077758843072
 20
5531.940727896422
 30
0.0
 11
6162.077758843072
 21
5416.140727896422
 31
0.0
  0
LINE
  5
1B1E
330
18
100
AcDbEntity
  8
OBJECT
100
AcDbLine
 10
6180.827779475255
 20
5531.940719445024
 30
0.0
 11
6180.827779475255
 21
5416.140719445023
 31
0.0
  0
LINE
  5
1B1F
330
18
100
AcDbEntity
  8
OBJECT
100
AcDbLine
 10
6183.327779475256
 20
5531.940719445024
 30
0.0
 11
6183.327779475256
 21
5416.140719445023
 31
0.0
  0
LINE
  5
1B20
330
18
100
AcDbEntity
  8
OBJECT
100
AcDbLine
 10
6199.577800107438
 20
5531.940719445024
 30
0.0
 11
6199.577800107438
 21
5416.140719445023
 31
0.0
  0
LINE
  5
1B21
330
18
100
AcDbEntity
  8
OBJECT
100
AcDbLine
 10
6202.077800107439
 20
5531.940719445024
 30
0.0
 11
6202.077800107439
 21
5416.140719445023
 31
0.0
  0
LINE
  5
1B22
330
18
100
AcDbEntity
  8
OBJECT
100
AcDbLine
 10
6089.577676314341
 20
5531.940719445024
 30
0.0
 11
6089.577676314341
 21
5416.140719445023
 31
0.0
  0
LINE
  5
1B23
330
18
100
AcDbEntity
  8
OBJECT
100
AcDbLine
 10
6087.077676314341
 20
5531.940719445024
 30
0.0
 11
6087.077676314341
 21
5416.140719445023
 31
0.0
  0
LINE
  5
1B24
330
18
100
AcDbEntity
  8
OBJECT
100
AcDbLine
 10
6105.827696946524
 20
5531.940710993623
 30
0.0
 11
6105.827696946524
 21
5416.140710993623
 31
0.0
  0
LINE
  5
1B25
330
18
100
AcDbEntity
  8
OBJECT
100
AcDbLine
 10
6108.327696946524
 20
5531.940710993623
 30
0.0
 11
6108.327696946524
 21
5416.140710993623
 31
0.0
  0
LINE
  5
1B26
330
18
100
AcDbEntity
  8
OBJECT
100
AcDbLine
 10
6145.82773821089
 20
5531.940702542224
 30
0.0
 11
6145.82773821089
 21
5416.140702542223
 31
0.0
  0
LINE
  5
1B27
330
18
100
AcDbEntity
  8
OBJECT
100
AcDbLine
 10
6143.327738210889
 20
5531.940702542224
 30
0.0
 11
6143.327738210889
 21
5416.140702542223
 31
0.0
  0
LINE
  5
1B28
330
18
100
AcDbEntity
  8
OBJECT
100
AcDbLine
 10
6124.577717578707
 20
5531.940710993623
 30
0.0
 11
6124.577717578707
 21
5416.140710993623
 31
0.0
  0
LINE
  5
1B29
330
18
100
AcDbEntity
  8
OBJECT
100
AcDbLine
 10
6127.077717578707
 20
5531.940710993623
 30
0.0
 11
6127.077717578707
 21
5416.140710993623
 31
0.0
  0
LINE
  5
1B2A
330
18
100
AcDbEntity
  8
OBJECT
100
AcDbLine
 10
6052.077635049975
 20
5531.940708820997
 30
0.0
 11
6052.077635049975
 21
5416.140708820996
 31
0.0
  0
LINE
  5
1B2B
330
18
100
AcDbEntity
  8
OBJECT
100
AcDbLine
 10
6049.577635049975
 20
5531.940708820997
 30
0.0
 11
6049.577635049975
 21
5416.140708820996
 31
0.0
  0
LINE
  5
1B2C
330
18
100
AcDbEntity
  8
OBJECT
100
AcDbLine
 10
6068.327655682158
 20
5531.940700369598
 30
0.0
 11
6068.327655682158
 21
5416.140700369598
 31
0.0
  0
LINE
  5
1B2D
330
18
100
AcDbEntity
  8
OBJECT
100
AcDbLine
 10
6070.827655682158
 20
5531.940700369598
 30
0.0
 11
6070.827655682158
 21
5416.140700369598
 31
0.0
  0
LINE
  5
1B2E
330
18
100
AcDbEntity
  8
OBJECT
100
AcDbLine
 10
6033.327614417792
 20
5531.940708820997
 30
0.0
 11
6033.327614417792
 21
5416.140708820996
 31
0.0
  0
LINE
  5
1B2F
330
18
100
AcDbEntity
  8
OBJECT
100
AcDbLine
 10
6220.827820739621
 20
5531.940710993623
 30
0.0
 11
6220.827820739621
 21
5416.140710993623
 31
0.0
  0
LINE
  5
1B30
330
18
100
AcDbEntity
  8
OBJECT
100
AcDbLine
 10
6218.327820739621
 20
5531.940710993623
 30
0.0
 11
6218.327820739621
 21
5416.140710993623
 31
0.0
  0
LINE
  5
1B31
330
18
100
AcDbEntity
  8
OBJECT
100
AcDbLine
 10
6277.07788263617
 20
5531.940721617648
 30
0.0
 11
6277.07788263617
 21
5416.140721617648
 31
0.0
  0
LINE
  5
1B32
330
18
100
AcDbEntity
  8
OBJECT
100
AcDbLine
 10
6274.57788263617
 20
5531.940721617648
 30
0.0
 11
6274.57788263617
 21
5416.140721617648
 31
0.0
  0
LINE
  5
1B33
330
18
100
AcDbEntity
  8
OBJECT
100
AcDbLine
 10
6293.327903268353
 20
5531.94071316625
 30
0.0
 11
6293.327903268353
 21
5416.14071316625
 31
0.0
  0
LINE
  5
1B34
330
18
100
AcDbEntity
  8
OBJECT
100
AcDbLine
 10
6295.827903268353
 20
5531.94071316625
 30
0.0
 11
6295.827903268353
 21
5416.14071316625
 31
0.0
  0
LINE
  5
1B35
330
18
100
AcDbEntity
  8
OBJECT
100
AcDbLine
 10
6258.327862003987
 20
5531.940721617648
 30
0.0
 11
6258.327862003987
 21
5416.140721617648
 31
0.0
  0
LINE
  5
1B36
330
18
100
AcDbEntity
  8
OBJECT
100
AcDbLine
 10
6255.827862003987
 20
5531.940721617648
 30
0.0
 11
6255.827862003987
 21
5416.140721617648
 31
0.0
  0
LINE
  5
1B37
330
18
100
AcDbEntity
  8
OBJECT
100
AcDbLine
 10
6237.077841371804
 20
5531.940730069049
 30
0.0
 11
6237.077841371804
 21
5416.140730069049
 31
0.0
  0
LINE
  5
1B38
330
18
100
AcDbEntity
  8
OBJECT
100
AcDbLine
 10
6239.577841371804
 20
5531.940730069049
 30
0.0
 11
6239.577841371804
 21
5416.140730069049
 31
0.0
  0
LINE
  5
1B39
330
18
100
AcDbEntity
  8
OBJECT
100
AcDbLine
 10
6333.327941000462
 20
5531.940691918198
 30
0.0
 11
6333.327941000462
 21
5432.016664045818
 31
0.0
  0
LINE
  5
1B3A
330
18
100
AcDbEntity
  8
OBJECT
100
AcDbLine
 10
6330.827941000461
 20
5531.940691918198
 30
0.0
 11
6330.827941000461
 21
5429.516664045818
 31
0.0
  0
LINE
  5
1B3B
330
18
100
AcDbEntity
  8
OBJECT
100
AcDbLine
 10
6312.077920368278
 20
5531.940700369598
 30
0.0
 11
6312.077920368278
 21
5416.140700369598
 31
0.0
  0
LINE
  5
1B3C
330
18
100
AcDbEntity
  8
OBJECT
100
AcDbLine
 10
6314.577920368279
 20
5531.940700369598
 30
0.0
 11
6314.577920368279
 21
5416.140700369598
 31
0.0
  0
LINE
  5
1B3D
330
18
100
AcDbEntity
  8
OBJECT
100
AcDbLine
 10
6370.827982264827
 20
5531.940702542224
 30
0.0
 11
6370.827982264827
 21
5469.516705310184
 31
0.0
  0
LINE
  5
1B3E
330
18
100
AcDbEntity
  8
OBJECT
100
AcDbLine
 10
6368.327982264827
 20
5531.940702542224
 30
0.0
 11
6368.327982264827
 21
5467.016705310184
 31
0.0
  0
LINE
  5
1B3F
330
18
100
AcDbEntity
  8
OBJECT
100
AcDbLine
 10
6349.577961632644
 20
5531.940710993623
 30
0.0
 11
6349.577961632644
 21
5448.266684678001
 31
0.0
  0
LINE
  5
1B40
330
18
100
AcDbEntity
  8
OBJECT
100
AcDbLine
 10
6352.077961632645
 20
5531.940710993623
 30
0.0
 11
6352.077961632645
 21
5450.766684678001
 31
0.0
  0
LINE
  5
1B41
330
18
100
AcDbEntity
  8
OBJECT
100
AcDbLine
 10
6427.078044161376
 20
5531.940708820997
 30
0.0
 11
6427.078044161376
 21
5525.766767206732
 31
0.0
  0
LINE
  5
1B42
330
18
100
AcDbEntity
  8
OBJECT
100
AcDbLine
 10
6424.578044161376
 20
5531.940708820997
 30
0.0
 11
6424.578044161376
 21
5523.266767206733
 31
0.0
  0
LINE
  5
1B4F
330
18
100
AcDbEntity
  8
OBJECT
100
AcDbLine
 10
6389.57800289701
 20
5531.940702542224
 30
0.0
 11
6389.57800289701
 21
5488.266725942366
 31
0.0
  0
LINE
  5
1B50
330
18
100
AcDbEntity
  8
OBJECT
100
AcDbLine
 10
6387.07800289701
 20
5531.940702542224
 30
0.0
 11
6387.07800289701
 21
5485.766725942367
 31
0.0
  0
LINE
  5
1B51
330
18
100
AcDbEntity
  8
OBJECT
100
AcDbLine
 10
6405.828023529193
 20
5531.940694090824
 30
0.0
 11
6405.828023529193
 21
5504.51674657455
 31
0.0
  0
LINE
  5
1B52
330
18
100
AcDbEntity
  8
OBJECT
100
AcDbLine
 10
6408.328023529193
 20
5531.940694090824
 30
0.0
 11
6408.328023529193
 21
5507.016746574549
 31
0.0
  0
LINE
  5
1B5E
330
18
100
AcDbEntity
  8
OBJECT
100
AcDbLine
 10
6189.651975151615
 20
5288.340698196972
 30
0.0
 11
5677.051975151613
 21
5288.340698196972
 31
0.0
  0
LINE
  5
1B5F
330
18
100
AcDbEntity
  8
OBJECT
100
AcDbLine
 10
6195.651975151616
 20
5294.340698196972
 30
0.0
 11
5677.051975151613
 21
5294.340698196972
 31
0.0
  0
LINE
  5
1B60
330
18
100
AcDbEntity
  8
OBJECT
100
AcDbLine
 10
6073.851975151615
 20
5172.540698196972
 30
0.0
 11
5677.051975151613
 21
5172.540698196972
 31
0.0
  0
LINE
  5
1B61
330
18
100
AcDbEntity
  8
OBJECT
100
AcDbLine
 10
6067.851975151616
 20
5166.540698196973
 30
0.0
 11
5677.051975151613
 21
5166.540698196973
 31
0.0
  0
LINE
  5
1B62
330
18
100
AcDbEntity
  8
OBJECT
100
AcDbLine
 10
5864.577428728146
 20
5294.340679121545
 30
0.0
 11
5864.577428728146
 21
5410.140679121546
 31
0.0
  0
LINE
  5
1B63
330
18
100
AcDbEntity
  8
OBJECT
100
AcDbLine
 10
5862.077428728146
 20
5294.340679121545
 30
0.0
 11
5862.077428728146
 21
5410.140679121546
 31
0.0
  0
LINE
  5
1B64
330
18
100
AcDbEntity
  8
OBJECT
100
AcDbLine
 10
5880.827449360329
 20
5294.340687572945
 30
0.0
 11
5880.827449360329
 21
5410.140687572945
 31
0.0
  0
LINE
  5
1B65
330
18
100
AcDbEntity
  8
OBJECT
100
AcDbLine
 10
5883.327449360329
 20
5294.340687572945
 30
0.0
 11
5883.327449360329
 21
5410.140687572945
 31
0.0
  0
LINE
  5
1B66
330
18
100
AcDbEntity
  8
OBJECT
100
AcDbLine
 10
5920.827490624695
 20
5294.340696024345
 30
0.0
 11
5920.827490624695
 21
5410.140696024345
 31
0.0
  0
LINE
  5
1B67
330
18
100
AcDbEntity
  8
OBJECT
100
AcDbLine
 10
5918.327490624695
 20
5294.340696024345
 30
0.0
 11
5918.327490624695
 21
5410.140696024345
 31
0.0
  0
LINE
  5
1B68
330
18
100
AcDbEntity
  8
OBJECT
100
AcDbLine
 10
5899.577469992512
 20
5294.340687572945
 30
0.0
 11
5899.577469992512
 21
5410.140687572945
 31
0.0
  0
LINE
  5
1B69
330
18
100
AcDbEntity
  8
OBJECT
100
AcDbLine
 10
5902.077469992512
 20
5294.340687572945
 30
0.0
 11
5902.077469992512
 21
5410.140687572945
 31
0.0
  0
LINE
  5
1B6A
330
18
100
AcDbEntity
  8
OBJECT
100
AcDbLine
 10
5937.077511256878
 20
5294.34067694892
 30
0.0
 11
5937.077511256878
 21
5410.14067694892
 31
0.0
  0
LINE
  5
1B6B
330
18
100
AcDbEntity
  8
OBJECT
100
AcDbLine
 10
5939.577511256878
 20
5294.34067694892
 30
0.0
 11
5939.577511256878
 21
5410.14067694892
 31
0.0
  0
LINE
  5
1B6C
330
18
100
AcDbEntity
  8
OBJECT
100
AcDbLine
 10
6014.57759378561
 20
5294.340679121545
 30
0.0
 11
6014.57759378561
 21
5410.140679121546
 31
0.0
  0
LINE
  5
1B6D
330
18
100
AcDbEntity
  8
OBJECT
100
AcDbLine
 10
6012.077593785609
 20
5294.340679121545
 30
0.0
 11
6012.077593785609
 21
5410.140679121546
 31
0.0
  0
LINE
  5
1B6E
330
18
100
AcDbEntity
  8
OBJECT
100
AcDbLine
 10
6030.827614417792
 20
5294.340687572945
 30
0.0
 11
6030.827614417792
 21
5410.140687572945
 31
0.0
  0
LINE
  5
1B6F
330
18
100
AcDbEntity
  8
OBJECT
100
AcDbLine
 10
5977.077552521244
 20
5294.340685400318
 30
0.0
 11
5977.077552521244
 21
5410.140685400318
 31
0.0
  0
LINE
  5
1B70
330
18
100
AcDbEntity
  8
OBJECT
100
AcDbLine
 10
5974.577552521243
 20
5294.340685400318
 30
0.0
 11
5974.577552521243
 21
5410.140685400318
 31
0.0
  0
LINE
  5
1B71
330
18
100
AcDbEntity
  8
OBJECT
100
AcDbLine
 10
5993.327573153426
 20
5294.340693851719
 30
0.0
 11
5993.327573153426
 21
5410.140693851719
 31
0.0
  0
LINE
  5
1B72
330
18
100
AcDbEntity
  8
OBJECT
100
AcDbLine
 10
5995.827573153427
 20
5294.340693851719
 30
0.0
 11
5995.827573153427
 21
5410.140693851719
 31
0.0
  0
LINE
  5
1B73
330
18
100
AcDbEntity
  8
OBJECT
100
AcDbLine
 10
5958.327531889061
 20
5294.340685400318
 30
0.0
 11
5958.327531889061
 21
5410.140685400318
 31
0.0
  0
LINE
  5
1B74
330
18
100
AcDbEntity
  8
OBJECT
100
AcDbLine
 10
5955.82753188906
 20
5294.340685400318
 30
0.0
 11
5955.82753188906
 21
5410.140685400318
 31
0.0
  0
LINE
  5
1B75
330
18
100
AcDbEntity
  8
OBJECT
100
AcDbLine
 10
5789.577346199415
 20
5294.340687572945
 30
0.0
 11
5789.577346199415
 21
5410.140687572945
 31
0.0
  0
LINE
  5
1B76
330
18
100
AcDbEntity
  8
OBJECT
100
AcDbLine
 10
5787.077346199414
 20
5294.340687572945
 30
0.0
 11
5787.077346199414
 21
5410.140687572945
 31
0.0
  0
LINE
  5
1B77
330
18
100
AcDbEntity
  8
OBJECT
100
AcDbLine
 10
5805.827366831597
 20
5294.340696024345
 30
0.0
 11
5805.827366831597
 21
5410.140696024345
 31
0.0
  0
LINE
  5
1B78
330
18
100
AcDbEntity
  8
OBJECT
100
AcDbLine
 10
5808.327366831598
 20
5294.340696024345
 30
0.0
 11
5808.327366831598
 21
5410.140696024345
 31
0.0
  0
LINE
  5
1B79
330
18
100
AcDbEntity
  8
OBJECT
100
AcDbLine
 10
5845.827408095964
 20
5294.340704475744
 30
0.0
 11
5845.827408095964
 21
5410.140704475744
 31
0.0
  0
LINE
  5
1B7A
330
18
100
AcDbEntity
  8
OBJECT
100
AcDbLine
 10
5843.327408095963
 20
5294.340704475744
 30
0.0
 11
5843.327408095963
 21
5410.140704475744
 31
0.0
  0
LINE
  5
1B7B
330
18
100
AcDbEntity
  8
OBJECT
100
AcDbLine
 10
5824.57738746378
 20
5294.340696024345
 30
0.0
 11
5824.57738746378
 21
5410.140696024345
 31
0.0
  0
LINE
  5
1B7C
330
18
100
AcDbEntity
  8
OBJECT
100
AcDbLine
 10
5827.077387463781
 20
5294.340696024345
 30
0.0
 11
5827.077387463781
 21
5410.140696024345
 31
0.0
  0
LINE
  5
1B7D
330
18
100
AcDbEntity
  8
OBJECT
100
AcDbLine
 10
5752.077304935049
 20
5294.34069819697
 30
0.0
 11
5752.077304935049
 21
5410.140698196972
 31
0.0
  0
LINE
  5
1B7E
330
18
100
AcDbEntity
  8
OBJECT
100
AcDbLine
 10
5749.577304935049
 20
5294.34069819697
 30
0.0
 11
5749.577304935049
 21
5410.140698196972
 31
0.0
  0
LINE
  5
1B7F
330
18
100
AcDbEntity
  8
OBJECT
100
AcDbLine
 10
5768.327325567232
 20
5294.34070664837
 30
0.0
 11
5768.327325567232
 21
5410.140706648371
 31
0.0
  0
LINE
  5
1B80
330
18
100
AcDbEntity
  8
OBJECT
100
AcDbLine
 10
5770.827325567232
 20
5294.34070664837
 30
0.0
 11
5770.827325567232
 21
5410.140706648371
 31
0.0
  0
LINE
  5
1B81
330
18
100
AcDbEntity
  8
OBJECT
100
AcDbLine
 10
5733.327284302866
 20
5294.34069819697
 30
0.0
 11
5733.327284302866
 21
5410.140698196972
 31
0.0
  0
LINE
  5
1B82
330
18
100
AcDbEntity
  8
OBJECT
100
AcDbLine
 10
5730.827284302866
 20
5294.34069819697
 30
0.0
 11
5730.827284302866
 21
5410.140698196972
 31
0.0
  0
LINE
  5
1B83
330
18
100
AcDbEntity
  8
OBJECT
100
AcDbLine
 10
5693.327253675284
 20
5294.34069819697
 30
0.0
 11
5693.327253675284
 21
5410.140698196972
 31
0.0
  0
LINE
  5
1B84
330
18
100
AcDbEntity
  8
OBJECT
100
AcDbLine
 10
5712.077263670683
 20
5294.34068974557
 30
0.0
 11
5712.077263670683
 21
5410.140689745571
 31
0.0
  0
LINE
  5
1B85
330
18
100
AcDbEntity
  8
OBJECT
100
AcDbLine
 10
5714.577263670683
 20
5294.34068974557
 30
0.0
 11
5714.577263670683
 21
5410.140689745571
 31
0.0
  0
LINE
  5
1B86
330
18
100
AcDbEntity
  8
OBJECT
100
AcDbLine
 10
5695.827253675283
 20
5294.34069819697
 30
0.0
 11
5695.827253675283
 21
5410.140698196972
 31
0.0
  0
LINE
  5
1B87
330
18
100
AcDbEntity
  8
OBJECT
100
AcDbLine
 10
5695.827253675283
 20
5288.340698196974
 30
0.0
 11
5695.827253675283
 21
5172.540698196972
 31
0.0
  0
LINE
  5
1B88
330
18
100
AcDbEntity
  8
OBJECT
100
AcDbLine
 10
5714.577263670683
 20
5288.340706648373
 30
0.0
 11
5714.577263670683
 21
5172.540706648373
 31
0.0
  0
LINE
  5
1B89
330
18
100
AcDbEntity
  8
OBJECT
100
AcDbLine
 10
5712.077263670683
 20
5288.340706648373
 30
0.0
 11
5712.077263670683
 21
5172.540706648373
 31
0.0
  0
LINE
  5
1B8A
330
18
100
AcDbEntity
  8
OBJECT
100
AcDbLine
 10
5693.327253675284
 20
5288.340698196974
 30
0.0
 11
5693.327253675284
 21
5172.540698196972
 31
0.0
  0
LINE
  5
1B8B
330
18
100
AcDbEntity
  8
OBJECT
100
AcDbLine
 10
5730.827284302866
 20
5288.340698196974
 30
0.0
 11
5730.827284302866
 21
5172.540698196972
 31
0.0
  0
LINE
  5
1B8C
330
18
100
AcDbEntity
  8
OBJECT
100
AcDbLine
 10
5733.327284302866
 20
5288.340698196974
 30
0.0
 11
5733.327284302866
 21
5172.540698196972
 31
0.0
  0
LINE
  5
1B8D
330
18
100
AcDbEntity
  8
OBJECT
100
AcDbLine
 10
5770.827325567232
 20
5288.340689745574
 30
0.0
 11
5770.827325567232
 21
5172.540689745574
 31
0.0
  0
LINE
  5
1B8E
330
18
100
AcDbEntity
  8
OBJECT
100
AcDbLine
 10
5768.327325567232
 20
5288.340689745574
 30
0.0
 11
5768.327325567232
 21
5172.540689745574
 31
0.0
  0
LINE
  5
1B8F
330
18
100
AcDbEntity
  8
OBJECT
100
AcDbLine
 10
5749.577304935049
 20
5288.340698196974
 30
0.0
 11
5749.577304935049
 21
5172.540698196972
 31
0.0
  0
LINE
  5
1B90
330
18
100
AcDbEntity
  8
OBJECT
100
AcDbLine
 10
5752.077304935049
 20
5288.340698196974
 30
0.0
 11
5752.077304935049
 21
5172.540698196972
 31
0.0
  0
LINE
  5
1B91
330
18
100
AcDbEntity
  8
OBJECT
100
AcDbLine
 10
5827.077387463781
 20
5288.340700369599
 30
0.0
 11
5827.077387463781
 21
5172.540700369599
 31
0.0
  0
LINE
  5
1B92
330
18
100
AcDbEntity
  8
OBJECT
100
AcDbLine
 10
5824.57738746378
 20
5288.340700369599
 30
0.0
 11
5824.57738746378
 21
5172.540700369599
 31
0.0
  0
LINE
  5
1B93
330
18
100
AcDbEntity
  8
OBJECT
100
AcDbLine
 10
5843.327408095963
 20
5288.3406919182
 30
0.0
 11
5843.327408095963
 21
5172.5406919182
 31
0.0
  0
LINE
  5
1B94
330
18
100
AcDbEntity
  8
OBJECT
100
AcDbLine
 10
5845.827408095964
 20
5288.3406919182
 30
0.0
 11
5845.827408095964
 21
5172.5406919182
 31
0.0
  0
LINE
  5
1B95
330
18
100
AcDbEntity
  8
OBJECT
100
AcDbLine
 10
5808.327366831598
 20
5288.340700369599
 30
0.0
 11
5808.327366831598
 21
5172.540700369599
 31
0.0
  0
LINE
  5
1B96
330
18
100
AcDbEntity
  8
OBJECT
100
AcDbLine
 10
5805.827366831597
 20
5288.340700369599
 30
0.0
 11
5805.827366831597
 21
5172.540700369599
 31
0.0
  0
LINE
  5
1B97
330
18
100
AcDbEntity
  8
OBJECT
100
AcDbLine
 10
5787.077346199414
 20
5288.340708820999
 30
0.0
 11
5787.077346199414
 21
5172.540708820998
 31
0.0
  0
LINE
  5
1B98
330
18
100
AcDbEntity
  8
OBJECT
100
AcDbLine
 10
5789.577346199415
 20
5288.340708820999
 30
0.0
 11
5789.577346199415
 21
5172.540708820998
 31
0.0
  0
LINE
  5
1B99
330
18
100
AcDbEntity
  8
OBJECT
100
AcDbLine
 10
5955.82753188906
 20
5288.340710993625
 30
0.0
 11
5955.82753188906
 21
5172.540710993625
 31
0.0
  0
LINE
  5
1B9A
330
18
100
AcDbEntity
  8
OBJECT
100
AcDbLine
 10
5958.327531889061
 20
5288.340710993625
 30
0.0
 11
5958.327531889061
 21
5172.540710993625
 31
0.0
  0
LINE
  5
1B9B
330
18
100
AcDbEntity
  8
OBJECT
100
AcDbLine
 10
5995.827573153427
 20
5288.340702542225
 30
0.0
 11
5995.827573153427
 21
5172.540702542224
 31
0.0
  0
LINE
  5
1B9C
330
18
100
AcDbEntity
  8
OBJECT
100
AcDbLine
 10
5993.327573153426
 20
5288.340702542225
 30
0.0
 11
5993.327573153426
 21
5172.540702542224
 31
0.0
  0
LINE
  5
1B9D
330
18
100
AcDbEntity
  8
OBJECT
100
AcDbLine
 10
5974.577552521243
 20
5288.340710993625
 30
0.0
 11
5974.577552521243
 21
5172.540710993625
 31
0.0
  0
LINE
  5
1B9E
330
18
100
AcDbEntity
  8
OBJECT
100
AcDbLine
 10
5977.077552521244
 20
5288.340710993625
 30
0.0
 11
5977.077552521244
 21
5172.540710993625
 31
0.0
  0
LINE
  5
1B9F
330
18
100
AcDbEntity
  8
OBJECT
100
AcDbLine
 10
6030.827614417792
 20
5288.340708820999
 30
0.0
 11
6030.827614417792
 21
5172.540708820998
 31
0.0
  0
LINE
  5
1BA0
330
18
100
AcDbEntity
  8
OBJECT
100
AcDbLine
 10
6012.077593785609
 20
5288.340717272399
 30
0.0
 11
6012.077593785609
 21
5172.540717272398
 31
0.0
  0
LINE
  5
1BA1
330
18
100
AcDbEntity
  8
OBJECT
100
AcDbLine
 10
6014.57759378561
 20
5288.340717272399
 30
0.0
 11
6014.57759378561
 21
5172.540717272398
 31
0.0
  0
LINE
  5
1BA2
330
18
100
AcDbEntity
  8
OBJECT
100
AcDbLine
 10
5939.577511256878
 20
5288.340719445025
 30
0.0
 11
5939.577511256878
 21
5172.540719445025
 31
0.0
  0
LINE
  5
1BA3
330
18
100
AcDbEntity
  8
OBJECT
100
AcDbLine
 10
5937.077511256878
 20
5288.340719445025
 30
0.0
 11
5937.077511256878
 21
5172.540719445025
 31
0.0
  0
LINE
  5
1BA4
330
18
100
AcDbEntity
  8
OBJECT
100
AcDbLine
 10
5902.077469992512
 20
5288.340708820999
 30
0.0
 11
5902.077469992512
 21
5172.540708820998
 31
0.0
  0
LINE
  5
1BA5
330
18
100
AcDbEntity
  8
OBJECT
100
AcDbLine
 10
5899.577469992512
 20
5288.340708820999
 30
0.0
 11
5899.577469992512
 21
5172.540708820998
 31
0.0
  0
LINE
  5
1BA6
330
18
100
AcDbEntity
  8
OBJECT
100
AcDbLine
 10
5918.327490624695
 20
5288.340700369599
 30
0.0
 11
5918.327490624695
 21
5172.540700369599
 31
0.0
  0
LINE
  5
1BA7
330
18
100
AcDbEntity
  8
OBJECT
100
AcDbLine
 10
5920.827490624695
 20
5288.340700369599
 30
0.0
 11
5920.827490624695
 21
5172.540700369599
 31
0.0
  0
LINE
  5
1BA8
330
18
100
AcDbEntity
  8
OBJECT
100
AcDbLine
 10
5883.327449360329
 20
5288.340708820999
 30
0.0
 11
5883.327449360329
 21
5172.540708820998
 31
0.0
  0
LINE
  5
1BA9
330
18
100
AcDbEntity
  8
OBJECT
100
AcDbLine
 10
5880.827449360329
 20
5288.340708820999
 30
0.0
 11
5880.827449360329
 21
5172.540708820998
 31
0.0
  0
LINE
  5
1BAA
330
18
100
AcDbEntity
  8
OBJECT
100
AcDbLine
 10
5862.077428728146
 20
5288.340717272399
 30
0.0
 11
5862.077428728146
 21
5172.540717272398
 31
0.0
  0
LINE
  5
1BAB
330
18
100
AcDbEntity
  8
OBJECT
100
AcDbLine
 10
5864.577428728146
 20
5288.340717272399
 30
0.0
 11
5864.577428728146
 21
5172.540717272398
 31
0.0
  0
LINE
  5
1BB4
330
18
100
AcDbEntity
  8
OBJECT
100
AcDbLine
 10
6239.577841371804
 20
5338.26656441716
 30
0.0
 11
6239.577841371804
 21
5410.140666324894
 31
0.0
  0
LINE
  5
1BB5
330
18
100
AcDbEntity
  8
OBJECT
100
AcDbLine
 10
6237.077841371804
 20
5335.766564417161
 30
0.0
 11
6237.077841371804
 21
5410.140666324894
 31
0.0
  0
LINE
  5
1BB6
330
18
100
AcDbEntity
  8
OBJECT
100
AcDbLine
 10
6255.827862003987
 20
5354.516585049344
 30
0.0
 11
6255.827862003987
 21
5410.140674776294
 31
0.0
  0
LINE
  5
1BB7
330
18
100
AcDbEntity
  8
OBJECT
100
AcDbLine
 10
6258.327862003987
 20
5357.016585049343
 30
0.0
 11
6258.327862003987
 21
5410.140674776294
 31
0.0
  0
LINE
  5
1BB8
330
18
100
AcDbEntity
  8
OBJECT
100
AcDbLine
 10
6295.827903268353
 20
5394.516626313709
 30
0.0
 11
6295.827903268353
 21
5410.140683227694
 31
0.0
  0
LINE
  5
1BB9
330
18
100
AcDbEntity
  8
OBJECT
100
AcDbLine
 10
6293.327903268353
 20
5392.01662631371
 30
0.0
 11
6293.327903268353
 21
5410.140683227694
 31
0.0
  0
LINE
  5
1BBA
330
18
100
AcDbEntity
  8
OBJECT
100
AcDbLine
 10
6274.57788263617
 20
5373.266605681527
 30
0.0
 11
6274.57788263617
 21
5410.140674776294
 31
0.0
  0
LINE
  5
1BBB
330
18
100
AcDbEntity
  8
OBJECT
100
AcDbLine
 10
6277.07788263617
 20
5375.766605681526
 30
0.0
 11
6277.07788263617
 21
5410.140674776294
 31
0.0
  0
LINE
  5
1BBC
330
18
100
AcDbEntity
  8
OBJECT
100
AcDbLine
 10
6218.327820739621
 20
5317.016543784978
 30
0.0
 11
6218.327820739621
 21
5410.140685400318
 31
0.0
  0
LINE
  5
1BBD
330
18
100
AcDbEntity
  8
OBJECT
100
AcDbLine
 10
6220.827820739621
 20
5319.516543784978
 30
0.0
 11
6220.827820739621
 21
5410.140685400318
 31
0.0
  0
LINE
  5
1BBE
330
18
100
AcDbEntity
  8
OBJECT
100
AcDbLine
 10
6033.327614417792
 20
5294.340687572945
 30
0.0
 11
6033.327614417792
 21
5410.140687572945
 31
0.0
  0
LINE
  5
1BBF
330
18
100
AcDbEntity
  8
OBJECT
100
AcDbLine
 10
6070.827655682158
 20
5294.340696024345
 30
0.0
 11
6070.827655682158
 21
5410.140696024345
 31
0.0
  0
LINE
  5
1BC0
330
18
100
AcDbEntity
  8
OBJECT
100
AcDbLine
 10
6068.327655682158
 20
5294.340696024345
 30
0.0
 11
6068.327655682158
 21
5410.140696024345
 31
0.0
  0
LINE
  5
1BC1
330
18
100
AcDbEntity
  8
OBJECT
100
AcDbLine
 10
6049.577635049975
 20
5294.340687572945
 30
0.0
 11
6049.577635049975
 21
5410.140687572945
 31
0.0
  0
LINE
  5
1BC2
330
18
100
AcDbEntity
  8
OBJECT
100
AcDbLine
 10
6052.077635049975
 20
5294.340687572945
 30
0.0
 11
6052.077635049975
 21
5410.140687572945
 31
0.0
  0
LINE
  5
1BC3
330
18
100
AcDbEntity
  8
OBJECT
100
AcDbLine
 10
6127.077717578707
 20
5294.340685400318
 30
0.0
 11
6127.077717578707
 21
5410.140685400318
 31
0.0
  0
LINE
  5
1BC4
330
18
100
AcDbEntity
  8
OBJECT
100
AcDbLine
 10
6124.577717578707
 20
5294.340685400318
 30
0.0
 11
6124.577717578707
 21
5410.140685400318
 31
0.0
  0
LINE
  5
1BC5
330
18
100
AcDbEntity
  8
OBJECT
100
AcDbLine
 10
6143.327738210889
 20
5294.340693851719
 30
0.0
 11
6143.327738210889
 21
5410.140693851719
 31
0.0
  0
LINE
  5
1BC6
330
18
100
AcDbEntity
  8
OBJECT
100
AcDbLine
 10
6145.82773821089
 20
5294.340693851719
 30
0.0
 11
6145.82773821089
 21
5410.140693851719
 31
0.0
  0
LINE
  5
1BC7
330
18
100
AcDbEntity
  8
OBJECT
100
AcDbLine
 10
6108.327696946524
 20
5294.340685400318
 30
0.0
 11
6108.327696946524
 21
5410.140685400318
 31
0.0
  0
LINE
  5
1BC8
330
18
100
AcDbEntity
  8
OBJECT
100
AcDbLine
 10
6105.827696946524
 20
5294.340685400318
 30
0.0
 11
6105.827696946524
 21
5410.140685400318
 31
0.0
  0
LINE
  5
1BC9
330
18
100
AcDbEntity
  8
OBJECT
100
AcDbLine
 10
6087.077676314341
 20
5294.34067694892
 30
0.0
 11
6087.077676314341
 21
5410.14067694892
 31
0.0
  0
LINE
  5
1BCA
330
18
100
AcDbEntity
  8
OBJECT
100
AcDbLine
 10
6089.577676314341
 20
5294.34067694892
 30
0.0
 11
6089.577676314341
 21
5410.14067694892
 31
0.0
  0
LINE
  5
1BCB
330
18
100
AcDbEntity
  8
OBJECT
100
AcDbLine
 10
6202.077800107439
 20
5300.766523152795
 30
0.0
 11
6202.077800107439
 21
5410.14067694892
 31
0.0
  0
LINE
  5
1BCC
330
18
100
AcDbEntity
  8
OBJECT
100
AcDbLine
 10
6199.577800107438
 20
5298.266523152795
 30
0.0
 11
6199.577800107438
 21
5410.14067694892
 31
0.0
  0
LINE
  5
1BCD
330
18
100
AcDbEntity
  8
OBJECT
100
AcDbLine
 10
6183.327779475256
 20
5294.34067694892
 30
0.0
 11
6183.327779475256
 21
5410.14067694892
 31
0.0
  0
LINE
  5
1BCE
330
18
100
AcDbEntity
  8
OBJECT
100
AcDbLine
 10
6180.827779475255
 20
5294.34067694892
 30
0.0
 11
6180.827779475255
 21
5410.14067694892
 31
0.0
  0
LINE
  5
1BCF
330
18
100
AcDbEntity
  8
OBJECT
100
AcDbLine
 10
6162.077758843072
 20
5294.34066849752
 30
0.0
 11
6162.077758843072
 21
5410.14066849752
 31
0.0
  0
LINE
  5
1BD0
330
18
100
AcDbEntity
  8
OBJECT
100
AcDbLine
 10
6164.577758843073
 20
5294.34066849752
 30
0.0
 11
6164.577758843073
 21
5410.14066849752
 31
0.0
  0
LINE
  5
1BD1
330
18
100
AcDbEntity
  8
OBJECT
100
AcDbLine
 10
6164.577758843073
 20
5288.340727896424
 30
0.0
 11
6164.577758843073
 21
5263.266481888429
 31
0.0
  0
LINE
  5
1BD2
330
18
100
AcDbEntity
  8
OBJECT
100
AcDbLine
 10
6162.077758843072
 20
5288.340727896424
 30
0.0
 11
6162.077758843072
 21
5260.766481888429
 31
0.0
  0
LINE
  5
1BD3
330
18
100
AcDbEntity
  8
OBJECT
100
AcDbLine
 10
6180.827779475255
 20
5288.340719445025
 30
0.0
 11
6180.827779475255
 21
5279.516502520612
 31
0.0
  0
LINE
  5
1BD4
330
18
100
AcDbEntity
  8
OBJECT
100
AcDbLine
 10
6183.327779475256
 20
5288.340719445025
 30
0.0
 11
6183.327779475256
 21
5282.016502520612
 31
0.0
  0
LINE
  5
1BD7
330
18
100
AcDbEntity
  8
OBJECT
100
AcDbLine
 10
6089.577676314341
 20
5288.340719445025
 30
0.0
 11
6089.577676314341
 21
5188.266399359697
 31
0.0
  0
LINE
  5
1BD8
330
18
100
AcDbEntity
  8
OBJECT
100
AcDbLine
 10
6087.077676314341
 20
5288.340719445025
 30
0.0
 11
6087.077676314341
 21
5185.766399359698
 31
0.0
  0
LINE
  5
1BD9
330
18
100
AcDbEntity
  8
OBJECT
100
AcDbLine
 10
6105.827696946524
 20
5288.340710993625
 30
0.0
 11
6105.827696946524
 21
5204.516419991881
 31
0.0
  0
LINE
  5
1BDA
330
18
100
AcDbEntity
  8
OBJECT
100
AcDbLine
 10
6108.327696946524
 20
5288.340710993625
 30
0.0
 11
6108.327696946524
 21
5207.01641999188
 31
0.0
  0
LINE
  5
1BDB
330
18
100
AcDbEntity
  8
OBJECT
100
AcDbLine
 10
6145.82773821089
 20
5288.340702542225
 30
0.0
 11
6145.82773821089
 21
5244.516461256246
 31
0.0
  0
LINE
  5
1BDC
330
18
100
AcDbEntity
  8
OBJECT
100
AcDbLine
 10
6143.327738210889
 20
5288.340702542225
 30
0.0
 11
6143.327738210889
 21
5242.016461256246
 31
0.0
  0
LINE
  5
1BDD
330
18
100
AcDbEntity
  8
OBJECT
100
AcDbLine
 10
6124.577717578707
 20
5288.340710993625
 30
0.0
 11
6124.577717578707
 21
5223.266440624064
 31
0.0
  0
LINE
  5
1BDE
330
18
100
AcDbEntity
  8
OBJECT
100
AcDbLine
 10
6127.077717578707
 20
5288.340710993625
 30
0.0
 11
6127.077717578707
 21
5225.766440624063
 31
0.0
  0
LINE
  5
1BDF
330
18
100
AcDbEntity
  8
OBJECT
100
AcDbLine
 10
6052.077635049975
 20
5288.340708820999
 30
0.0
 11
6052.077635049975
 21
5172.540708820998
 31
0.0
  0
LINE
  5
1BE0
330
18
100
AcDbEntity
  8
OBJECT
100
AcDbLine
 10
6049.577635049975
 20
5288.340708820999
 30
0.0
 11
6049.577635049975
 21
5172.540708820998
 31
0.0
  0
LINE
  5
1BE1
330
18
100
AcDbEntity
  8
OBJECT
100
AcDbLine
 10
6068.327655682158
 20
5288.340700369599
 30
0.0
 11
6068.327655682158
 21
5172.540700369599
 31
0.0
  0
LINE
  5
1BE2
330
18
100
AcDbEntity
  8
OBJECT
100
AcDbLine
 10
6070.827655682158
 20
5288.340700369599
 30
0.0
 11
6070.827655682158
 21
5172.540700369599
 31
0.0
  0
LINE
  5
1BE3
330
18
100
AcDbEntity
  8
OBJECT
100
AcDbLine
 10
6033.327614417792
 20
5288.340708820999
 30
0.0
 11
6033.327614417792
 21
5172.540708820998
 31
0.0
  0
LINE
  5
1C30
330
18
100
AcDbEntity
  8
OBJECT
100
AcDbLine
 10
5946.051975151616
 20
5044.740698196974
 30
0.0
 11
5677.051975151613
 21
5044.740698196974
 31
0.0
  0
LINE
  5
1C31
330
18
100
AcDbEntity
  8
OBJECT
100
AcDbLine
 10
5952.051975151617
 20
5050.740698196974
 30
0.0
 11
5677.051975151613
 21
5050.740698196974
 31
0.0
  0
LINE
  5
1C32
330
18
100
AcDbEntity
  8
OBJECT
100
AcDbLine
 10
5830.251975151617
 20
4928.940698196974
 30
0.0
 11
5677.051975151613
 21
4928.940698196974
 31
0.0
  0
LINE
  5
1C33
330
18
100
AcDbEntity
  8
OBJECT
100
AcDbLine
 10
5824.251975151618
 20
4922.940698196974
 30
0.0
 11
5677.051975151613
 21
4922.940698196974
 31
0.0
  0
LINE
  5
1C34
330
18
100
AcDbEntity
  8
OBJECT
100
AcDbLine
 10
5702.451975151618
 20
4801.140698196975
 30
0.0
 11
5677.051975151613
 21
4801.140698196975
 31
0.0
  0
LINE
  5
1C35
330
18
100
AcDbEntity
  8
OBJECT
100
AcDbLine
 10
5708.451975151618
 20
4807.140698196975
 30
0.0
 11
5677.051975151613
 21
4807.140698196975
 31
0.0
  0
LINE
  5
1C4A
330
18
100
AcDbEntity
  8
OBJECT
100
AcDbLine
 10
6033.327614417792
 20
5132.016337463149
 30
0.0
 11
6033.327614417792
 21
5166.540687572947
 31
0.0
  0
LINE
  5
1C4D
330
18
100
AcDbEntity
  8
OBJECT
100
AcDbLine
 10
6049.577635049975
 20
5148.266358095332
 30
0.0
 11
6049.577635049975
 21
5166.540687572947
 31
0.0
  0
LINE
  5
1C4E
330
18
100
AcDbEntity
  8
OBJECT
100
AcDbLine
 10
6052.077635049975
 20
5150.766358095332
 30
0.0
 11
6052.077635049975
 21
5166.540687572947
 31
0.0
  0
LINE
  5
1C5D
330
18
100
AcDbEntity
  8
OBJECT
100
AcDbLine
 10
5864.577428728146
 20
5050.740679121546
 30
0.0
 11
5864.577428728146
 21
5166.540679121547
 31
0.0
  0
LINE
  5
1C5E
330
18
100
AcDbEntity
  8
OBJECT
100
AcDbLine
 10
5862.077428728146
 20
5050.740679121546
 30
0.0
 11
5862.077428728146
 21
5166.540679121547
 31
0.0
  0
LINE
  5
1C5F
330
18
100
AcDbEntity
  8
OBJECT
100
AcDbLine
 10
5880.827449360329
 20
5050.740687572947
 30
0.0
 11
5880.827449360329
 21
5166.540687572947
 31
0.0
  0
LINE
  5
1C60
330
18
100
AcDbEntity
  8
OBJECT
100
AcDbLine
 10
5883.327449360329
 20
5050.740687572947
 30
0.0
 11
5883.327449360329
 21
5166.540687572947
 31
0.0
  0
LINE
  5
1C61
330
18
100
AcDbEntity
  8
OBJECT
100
AcDbLine
 10
5920.827490624695
 20
5050.740696024346
 30
0.0
 11
5920.827490624695
 21
5166.540696024346
 31
0.0
  0
LINE
  5
1C62
330
18
100
AcDbEntity
  8
OBJECT
100
AcDbLine
 10
5918.327490624695
 20
5050.740696024346
 30
0.0
 11
5918.327490624695
 21
5166.540696024346
 31
0.0
  0
LINE
  5
1C63
330
18
100
AcDbEntity
  8
OBJECT
100
AcDbLine
 10
5899.577469992512
 20
5050.740687572947
 30
0.0
 11
5899.577469992512
 21
5166.540687572947
 31
0.0
  0
LINE
  5
1C64
330
18
100
AcDbEntity
  8
OBJECT
100
AcDbLine
 10
5902.077469992512
 20
5050.740687572947
 30
0.0
 11
5902.077469992512
 21
5166.540687572947
 31
0.0
  0
LINE
  5
1C65
330
18
100
AcDbEntity
  8
OBJECT
100
AcDbLine
 10
5937.077511256878
 20
5050.740676948921
 30
0.0
 11
5937.077511256878
 21
5166.540676948921
 31
0.0
  0
LINE
  5
1C66
330
18
100
AcDbEntity
  8
OBJECT
100
AcDbLine
 10
5939.577511256878
 20
5050.740676948921
 30
0.0
 11
5939.577511256878
 21
5166.540676948921
 31
0.0
  0
LINE
  5
1C67
330
18
100
AcDbEntity
  8
OBJECT
100
AcDbLine
 10
6014.57759378561
 20
5113.266316830966
 30
0.0
 11
6014.57759378561
 21
5166.540679121547
 31
0.0
  0
LINE
  5
1C68
330
18
100
AcDbEntity
  8
OBJECT
100
AcDbLine
 10
6012.077593785609
 20
5110.766316830966
 30
0.0
 11
6012.077593785609
 21
5166.540679121547
 31
0.0
  0
LINE
  5
1C69
330
18
100
AcDbEntity
  8
OBJECT
100
AcDbLine
 10
6030.827614417792
 20
5129.516337463149
 30
0.0
 11
6030.827614417792
 21
5166.540687572947
 31
0.0
  0
LINE
  5
1C6A
330
18
100
AcDbEntity
  8
OBJECT
100
AcDbLine
 10
5977.077552521244
 20
5075.7662755666
 30
0.0
 11
5977.077552521244
 21
5166.54068540032
 31
0.0
  0
LINE
  5
1C6B
330
18
100
AcDbEntity
  8
OBJECT
100
AcDbLine
 10
5974.577552521243
 20
5073.2662755666
 30
0.0
 11
5974.577552521243
 21
5166.54068540032
 31
0.0
  0
LINE
  5
1C6C
330
18
100
AcDbEntity
  8
OBJECT
100
AcDbLine
 10
5993.327573153426
 20
5092.016296198783
 30
0.0
 11
5993.327573153426
 21
5166.540693851721
 31
0.0
  0
LINE
  5
1C6D
330
18
100
AcDbEntity
  8
OBJECT
100
AcDbLine
 10
5995.827573153427
 20
5094.516296198783
 30
0.0
 11
5995.827573153427
 21
5166.540693851721
 31
0.0
  0
LINE
  5
1C6E
330
18
100
AcDbEntity
  8
OBJECT
100
AcDbLine
 10
5958.327531889061
 20
5057.016254934417
 30
0.0
 11
5958.327531889061
 21
5166.54068540032
 31
0.0
  0
LINE
  5
1C6F
330
18
100
AcDbEntity
  8
OBJECT
100
AcDbLine
 10
5955.82753188906
 20
5054.516254934418
 30
0.0
 11
5955.82753188906
 21
5166.54068540032
 31
0.0
  0
LINE
  5
1C70
330
18
100
AcDbEntity
  8
OBJECT
100
AcDbLine
 10
5789.577346199415
 20
5050.740687572947
 30
0.0
 11
5789.577346199415
 21
5166.540687572947
 31
0.0
  0
LINE
  5
1C71
330
18
100
AcDbEntity
  8
OBJECT
100
AcDbLine
 10
5787.077346199414
 20
5050.740687572947
 30
0.0
 11
5787.077346199414
 21
5166.540687572947
 31
0.0
  0
LINE
  5
1C72
330
18
100
AcDbEntity
  8
OBJECT
100
AcDbLine
 10
5805.827366831597
 20
5050.740696024346
 30
0.0
 11
5805.827366831597
 21
5166.540696024346
 31
0.0
  0
LINE
  5
1C73
330
18
100
AcDbEntity
  8
OBJECT
100
AcDbLine
 10
5808.327366831598
 20
5050.740696024346
 30
0.0
 11
5808.327366831598
 21
5166.540696024346
 31
0.0
  0
LINE
  5
1C74
330
18
100
AcDbEntity
  8
OBJECT
100
AcDbLine
 10
5845.827408095964
 20
5050.740704475746
 30
0.0
 11
5845.827408095964
 21
5166.540704475746
 31
0.0
  0
LINE
  5
1C75
330
18
100
AcDbEntity
  8
OBJECT
100
AcDbLine
 10
5843.327408095963
 20
5050.740704475746
 30
0.0
 11
5843.327408095963
 21
5166.540704475746
 31
0.0
  0
LINE
  5
1C76
330
18
100
AcDbEntity
  8
OBJECT
100
AcDbLine
 10
5824.57738746378
 20
5050.740696024346
 30
0.0
 11
5824.57738746378
 21
5166.540696024346
 31
0.0
  0
LINE
  5
1C77
330
18
100
AcDbEntity
  8
OBJECT
100
AcDbLine
 10
5827.077387463781
 20
5050.740696024346
 30
0.0
 11
5827.077387463781
 21
5166.540696024346
 31
0.0
  0
LINE
  5
1C78
330
18
100
AcDbEntity
  8
OBJECT
100
AcDbLine
 10
5752.077304935049
 20
5050.740698196971
 30
0.0
 11
5752.077304935049
 21
5166.540698196973
 31
0.0
  0
LINE
  5
1C79
330
18
100
AcDbEntity
  8
OBJECT
100
AcDbLine
 10
5749.577304935049
 20
5050.740698196971
 30
0.0
 11
5749.577304935049
 21
5166.540698196973
 31
0.0
  0
LINE
  5
1C7A
330
18
100
AcDbEntity
  8
OBJECT
100
AcDbLine
 10
5768.327325567232
 20
5050.740706648372
 30
0.0
 11
5768.327325567232
 21
5166.540706648373
 31
0.0
  0
LINE
  5
1C7B
330
18
100
AcDbEntity
  8
OBJECT
100
AcDbLine
 10
5770.827325567232
 20
5050.740706648372
 30
0.0
 11
5770.827325567232
 21
5166.540706648373
 31
0.0
  0
LINE
  5
1C7C
330
18
100
AcDbEntity
  8
OBJECT
100
AcDbLine
 10
5733.327284302866
 20
5050.740698196971
 30
0.0
 11
5733.327284302866
 21
5166.540698196973
 31
0.0
  0
LINE
  5
1C7D
330
18
100
AcDbEntity
  8
OBJECT
100
AcDbLine
 10
5730.827284302866
 20
5050.740698196971
 30
0.0
 11
5730.827284302866
 21
5166.540698196973
 31
0.0
  0
LINE
  5
1C7E
330
18
100
AcDbEntity
  8
OBJECT
100
AcDbLine
 10
5693.327253675284
 20
5050.740698196971
 30
0.0
 11
5693.327253675284
 21
5166.540698196973
 31
0.0
  0
LINE
  5
1C7F
330
18
100
AcDbEntity
  8
OBJECT
100
AcDbLine
 10
5712.077263670683
 20
5050.740689745572
 30
0.0
 11
5712.077263670683
 21
5166.540689745573
 31
0.0
  0
LINE
  5
1C80
330
18
100
AcDbEntity
  8
OBJECT
100
AcDbLine
 10
5714.577263670683
 20
5050.740689745572
 30
0.0
 11
5714.577263670683
 21
5166.540689745573
 31
0.0
  0
LINE
  5
1C81
330
18
100
AcDbEntity
  8
OBJECT
100
AcDbLine
 10
5695.827253675283
 20
5050.740698196971
 30
0.0
 11
5695.827253675283
 21
5166.540698196973
 31
0.0
  0
LINE
  5
1C95
330
18
100
AcDbEntity
  8
OBJECT
100
AcDbLine
 10
5789.577346199415
 20
4888.266069244771
 30
0.0
 11
5789.577346199415
 21
4922.940687572948
 31
0.0
  0
LINE
  5
1C96
330
18
100
AcDbEntity
  8
OBJECT
100
AcDbLine
 10
5787.077346199414
 20
4885.766069244771
 30
0.0
 11
5787.077346199414
 21
4922.940687572948
 31
0.0
  0
LINE
  5
1C97
330
18
100
AcDbEntity
  8
OBJECT
100
AcDbLine
 10
5805.827366831597
 20
4904.516089876954
 30
0.0
 11
5805.827366831597
 21
4922.940696024348
 31
0.0
  0
LINE
  5
1C98
330
18
100
AcDbEntity
  8
OBJECT
100
AcDbLine
 10
5808.327366831598
 20
4907.016089876954
 30
0.0
 11
5808.327366831598
 21
4922.940696024348
 31
0.0
  0
LINE
  5
1C9D
330
18
100
AcDbEntity
  8
OBJECT
100
AcDbLine
 10
5752.077304935049
 20
4850.766027980405
 30
0.0
 11
5752.077304935049
 21
4922.940698196974
 31
0.0
  0
LINE
  5
1C9E
330
18
100
AcDbEntity
  8
OBJECT
100
AcDbLine
 10
5749.577304935049
 20
4848.266027980406
 30
0.0
 11
5749.577304935049
 21
4922.940698196974
 31
0.0
  0
LINE
  5
1C9F
330
18
100
AcDbEntity
  8
OBJECT
100
AcDbLine
 10
5768.327325567232
 20
4867.016048612589
 30
0.0
 11
5768.327325567232
 21
4922.940706648374
 31
0.0
  0
LINE
  5
1CA0
330
18
100
AcDbEntity
  8
OBJECT
100
AcDbLine
 10
5770.827325567232
 20
4869.516048612588
 30
0.0
 11
5770.827325567232
 21
4922.940706648374
 31
0.0
  0
LINE
  5
1CA1
330
18
100
AcDbEntity
  8
OBJECT
100
AcDbLine
 10
5733.327284302866
 20
4832.016007348222
 30
0.0
 11
5733.327284302866
 21
4922.940698196974
 31
0.0
  0
LINE
  5
1CA2
330
18
100
AcDbEntity
  8
OBJECT
100
AcDbLine
 10
5730.827284302866
 20
4829.516007348223
 30
0.0
 11
5730.827284302866
 21
4922.940698196974
 31
0.0
  0
LINE
  5
1CA3
330
18
100
AcDbEntity
  8
OBJECT
100
AcDbLine
 10
5693.327253675284
 20
4807.140698196973
 30
0.0
 11
5693.327253675284
 21
4922.940698196974
 31
0.0
  0
LINE
  5
1CA4
330
18
100
AcDbEntity
  8
OBJECT
100
AcDbLine
 10
5712.077263670683
 20
4810.76598671604
 30
0.0
 11
5712.077263670683
 21
4922.940689745574
 31
0.0
  0
LINE
  5
1CA5
330
18
100
AcDbEntity
  8
OBJECT
100
AcDbLine
 10
5714.577263670683
 20
4813.265986716039
 30
0.0
 11
5714.577263670683
 21
4922.940689745574
 31
0.0
  0
LINE
  5
1CA6
330
18
100
AcDbEntity
  8
OBJECT
100
AcDbLine
 10
5695.827253675283
 20
4807.140698196973
 30
0.0
 11
5695.827253675283
 21
4922.940698196974
 31
0.0
  0
LINE
  5
1CA7
330
18
100
AcDbEntity
  8
OBJECT
100
AcDbLine
 10
5695.827253675283
 20
5044.740698196975
 30
0.0
 11
5695.827253675283
 21
4928.940698196974
 31
0.0
  0
LINE
  5
1CA8
330
18
100
AcDbEntity
  8
OBJECT
100
AcDbLine
 10
5714.577263670683
 20
5044.740706648375
 30
0.0
 11
5714.577263670683
 21
4928.940706648374
 31
0.0
  0
LINE
  5
1CA9
330
18
100
AcDbEntity
  8
OBJECT
100
AcDbLine
 10
5712.077263670683
 20
5044.740706648375
 30
0.0
 11
5712.077263670683
 21
4928.940706648374
 31
0.0
  0
LINE
  5
1CAA
330
18
100
AcDbEntity
  8
OBJECT
100
AcDbLine
 10
5693.327253675284
 20
5044.740698196975
 30
0.0
 11
5693.327253675284
 21
4928.940698196974
 31
0.0
  0
LINE
  5
1CAB
330
18
100
AcDbEntity
  8
OBJECT
100
AcDbLine
 10
5730.827284302866
 20
5044.740698196975
 30
0.0
 11
5730.827284302866
 21
4928.940698196974
 31
0.0
  0
LINE
  5
1CAC
330
18
100
AcDbEntity
  8
OBJECT
100
AcDbLine
 10
5733.327284302866
 20
5044.740698196975
 30
0.0
 11
5733.327284302866
 21
4928.940698196974
 31
0.0
  0
LINE
  5
1CAD
330
18
100
AcDbEntity
  8
OBJECT
100
AcDbLine
 10
5770.827325567232
 20
5044.740689745575
 30
0.0
 11
5770.827325567232
 21
4928.940689745575
 31
0.0
  0
LINE
  5
1CAE
330
18
100
AcDbEntity
  8
OBJECT
100
AcDbLine
 10
5768.327325567232
 20
5044.740689745575
 30
0.0
 11
5768.327325567232
 21
4928.940689745575
 31
0.0
  0
LINE
  5
1CAF
330
18
100
AcDbEntity
  8
OBJECT
100
AcDbLine
 10
5749.577304935049
 20
5044.740698196975
 30
0.0
 11
5749.577304935049
 21
4928.940698196974
 31
0.0
  0
LINE
  5
1CB0
330
18
100
AcDbEntity
  8
OBJECT
100
AcDbLine
 10
5752.077304935049
 20
5044.740698196975
 30
0.0
 11
5752.077304935049
 21
4928.940698196974
 31
0.0
  0
LINE
  5
1CB1
330
18
100
AcDbEntity
  8
OBJECT
100
AcDbLine
 10
5827.077387463781
 20
5044.740700369601
 30
0.0
 11
5827.077387463781
 21
4928.940700369601
 31
0.0
  0
LINE
  5
1CB2
330
18
100
AcDbEntity
  8
OBJECT
100
AcDbLine
 10
5824.57738746378
 20
5044.740700369601
 30
0.0
 11
5824.57738746378
 21
4928.940700369601
 31
0.0
  0
LINE
  5
1CB3
330
18
100
AcDbEntity
  8
OBJECT
100
AcDbLine
 10
5843.327408095963
 20
5044.740691918201
 30
0.0
 11
5843.327408095963
 21
4942.01613114132
 31
0.0
  0
LINE
  5
1CB4
330
18
100
AcDbEntity
  8
OBJECT
100
AcDbLine
 10
5845.827408095964
 20
5044.740691918201
 30
0.0
 11
5845.827408095964
 21
4944.51613114132
 31
0.0
  0
LINE
  5
1CB5
330
18
100
AcDbEntity
  8
OBJECT
100
AcDbLine
 10
5808.327366831598
 20
5044.740700369601
 30
0.0
 11
5808.327366831598
 21
4928.940700369601
 31
0.0
  0
LINE
  5
1CB6
330
18
100
AcDbEntity
  8
OBJECT
100
AcDbLine
 10
5805.827366831597
 20
5044.740700369601
 30
0.0
 11
5805.827366831597
 21
4928.940700369601
 31
0.0
  0
LINE
  5
1CB7
330
18
100
AcDbEntity
  8
OBJECT
100
AcDbLine
 10
5787.077346199414
 20
5044.740708821001
 30
0.0
 11
5787.077346199414
 21
4928.940708820999
 31
0.0
  0
LINE
  5
1CB8
330
18
100
AcDbEntity
  8
OBJECT
100
AcDbLine
 10
5789.577346199415
 20
5044.740708821001
 30
0.0
 11
5789.577346199415
 21
4928.940708820999
 31
0.0
  0
LINE
  5
1CC2
330
18
100
AcDbEntity
  8
OBJECT
100
AcDbLine
 10
5939.577511256878
 20
5044.740719445027
 30
0.0
 11
5939.577511256878
 21
5038.266234302234
 31
0.0
  0
LINE
  5
1CC3
330
18
100
AcDbEntity
  8
OBJECT
100
AcDbLine
 10
5937.077511256878
 20
5044.740719445027
 30
0.0
 11
5937.077511256878
 21
5035.766234302235
 31
0.0
  0
LINE
  5
1CC4
330
18
100
AcDbEntity
  8
OBJECT
100
AcDbLine
 10
5902.077469992512
 20
5044.740708821001
 30
0.0
 11
5902.077469992512
 21
5000.766193037868
 31
0.0
  0
LINE
  5
1CC5
330
18
100
AcDbEntity
  8
OBJECT
100
AcDbLine
 10
5899.577469992512
 20
5044.740708821001
 30
0.0
 11
5899.577469992512
 21
4998.266193037869
 31
0.0
  0
LINE
  5
1CC6
330
18
100
AcDbEntity
  8
OBJECT
100
AcDbLine
 10
5918.327490624695
 20
5044.740700369601
 30
0.0
 11
5918.327490624695
 21
5017.016213670052
 31
0.0
  0
LINE
  5
1CC7
330
18
100
AcDbEntity
  8
OBJECT
100
AcDbLine
 10
5920.827490624695
 20
5044.740700369601
 30
0.0
 11
5920.827490624695
 21
5019.516213670051
 31
0.0
  0
LINE
  5
1CC8
330
18
100
AcDbEntity
  8
OBJECT
100
AcDbLine
 10
5883.327449360329
 20
5044.740708821001
 30
0.0
 11
5883.327449360329
 21
4982.016172405685
 31
0.0
  0
LINE
  5
1CC9
330
18
100
AcDbEntity
  8
OBJECT
100
AcDbLine
 10
5880.827449360329
 20
5044.740708821001
 30
0.0
 11
5880.827449360329
 21
4979.516172405686
 31
0.0
  0
LINE
  5
1CCA
330
18
100
AcDbEntity
  8
OBJECT
100
AcDbLine
 10
5862.077428728146
 20
5044.7407172724
 30
0.0
 11
5862.077428728146
 21
4960.766151773503
 31
0.0
  0
LINE
  5
1CCB
330
18
100
AcDbEntity
  8
OBJECT
100
AcDbLine
 10
5864.577428728146
 20
5044.7407172724
 30
0.0
 11
5864.577428728146
 21
4963.266151773503
 31
0.0
  0
LINE
  5
1CCC
330
18
100
AcDbEntity
  8
OBJECT
100
AcDbLine
 10
5695.827253675283
 20
4801.140698196977
 30
0.0
 11
5695.827253675283
 21
4794.51597672064
 31
0.0
  0
LINE
  5
1CCF
330
18
100
AcDbEntity
  8
OBJECT
100
AcDbLine
 10
5693.327253675284
 20
4801.140698196977
 30
0.0
 11
5693.327253675284
 21
4792.01597672064
 31
0.0
  0
LINE
  5
1DDF
330
18
100
AcDbEntity
  8
OBJECT
100
AcDbLine
 10
5677.051975151613
 20
5653.740698196969
 30
0.0
 11
5677.051975151613
 21
4775.74069819697
 31
0.0
  0
LINE
  5
1DE0
330
18
100
AcDbEntity
  8
OBJECT
100
AcDbLine
 10
5671.051975151613
 20
5659.740698196969
 30
0.0
 11
5671.051975151613
 21
4769.74069819697
 31
0.0
  0
LINE
  5
248A
330
18
100
AcDbEntity
  8
OBJECT
100
AcDbLine
 10
5566.051975151613
 20
4514.74069819697
 30
0.0
 11
5566.051975151613
 21
3514.74069819697
 31
0.0
  0
LINE
  5
248B
330
18
100
AcDbEntity
  8
OBJECT
100
AcDbLine
 10
5566.051975151613
 20
3514.74069819697
 30
0.0
 11
6666.051975151614
 21
3514.74069819697
 31
0.0
  0
LINE
  5
248C
330
18
100
AcDbEntity
  8
OBJECT
100
AcDbLine
 10
6666.051975151614
 20
3514.74069819697
 30
0.0
 11
6666.051975151614
 21
4514.74069819697
 31
0.0
  0
LINE
  5
248D
330
18
100
AcDbEntity
  8
OBJECT
100
AcDbLine
 10
6666.051975151614
 20
4514.74069819697
 30
0.0
 11
5566.051975151613
 21
4514.74069819697
 31
0.0
  0
LINE
  5
248E
330
18
100
AcDbEntity
  8
点線
100
AcDbLine
 10
5666.051975151614
 20
4514.74069819697
 30
0.0
 11
5666.051975151614
 21
4464.74069819697
 31
0.0
  0
LINE
  5
248F
330
18
100
AcDbEntity
  8
点線
100
AcDbLine
 10
5666.051975151614
 20
4464.74069819697
 30
0.0
 11
6566.051975151613
 21
4464.74069819697
 31
0.0
  0
LINE
  5
2490
330
18
100
AcDbEntity
  8
点線
100
AcDbLine
 10
6566.051975151613
 20
4464.74069819697
 30
0.0
 11
6566.051975151613
 21
4514.74069819697
 31
0.0
  0
LINE
  5
2491
330
18
100
AcDbEntity
  8
点線
100
AcDbLine
 10
5716.051975151613
 20
4464.74069819697
 30
0.0
 11
5716.051975151613
 21
3514.74069819697
 31
0.0
  0
LINE
  5
2492
330
18
100
AcDbEntity
  8
点線
100
AcDbLine
 10
6516.051975151613
 20
4464.74069819697
 30
0.0
 11
6516.051975151613
 21
3514.74069819697
 31
0.0
  0
MTEXT
  5
25C7
330
18
100
AcDbEntity
  8
上書線
100
AcDbMText
 10
8253.315695176407
 20
4725.20329947083
 30
0.0
 40
50.0
 41
1096.913
 71
     1
 72
     5
  1
1100
 73
     1
 44
1.0
  0
LINE
  5
25C8
330
18
100
AcDbEntity
  8
上書線
100
AcDbLine
 10
8513.359131829018
 20
5871.130530597802
 30
0.0
 11
8513.359131829018
 21
4051.130530597801
 31
0.0
  0
LINE
  5
25C9
330
18
100
AcDbEntity
  8
上書線
100
AcDbLine
 10
8908.284377161388
 20
5871.130530597802
 30
0.0
 11
8908.284377161388
 21
4051.130530597801
 31
0.0
  0
LINE
  5
25CA
330
18
100
AcDbEntity
  8
上書線
100
AcDbLine
 10
8156.862865192845
 20
5871.130530597802
 30
0.0
 11
8156.862865192845
 21
4051.130530597801
 31
0.0
  0
MTEXT
  5
25CB
330
18
100
AcDbEntity
  8
上書線
100
AcDbMText
 10
8253.315695176407
 20
4125.203299470831
 30
0.0
 40
50.0
 41
1096.913
 71
     1
 72
     5
  1
1400
 73
     1
 44
1.0
  0
MTEXT
  5
25CC
330
18
100
AcDbEntity
  8
上書線
100
AcDbMText
 10
8253.315695176407
 20
4225.20329947083
 30
0.0
 40
50.0
 41
1096.913
 71
     1
 72
     5
  1
1350
 73
     1
 44
1.0
  0
MTEXT
  5
25CD
330
18
100
AcDbEntity
  8
上書線
100
AcDbMText
 10
8253.315695176407
 20
4325.203299470831
 30
0.0
 40
50.0
 41
1096.913
 71
     1
 72
     5
  1
1300
 73
     1
 44
1.0
  0
MTEXT
  5
25CE
330
18
100
AcDbEntity
  8
上書線
100
AcDbMText
 10
8253.315695176407
 20
4425.203299470831
 30
0.0
 40
50.0
 41
1096.913
 71
     1
 72
     5
  1
1250
 73
     1
 44
1.0
  0
MTEXT
  5
25CF
330
18
100
AcDbEntity
  8
上書線
100
AcDbMText
 10
8253.315695176407
 20
4525.20329947083
 30
0.0
 40
50.0
 41
1096.913
 71
     1
 72
     5
  1
1200
 73
     1
 44
1.0
  0
MTEXT
  5
25D0
330
18
100
AcDbEntity
  8
上書線
100
AcDbMText
 10
8253.315695176407
 20
4625.203299470831
 30
0.0
 40
50.0
 41
1096.913
 71
     1
 72
     5
  1
1150
 73
     1
 44
1.0
  0
LINE
  5
25D1
330
18
100
AcDbEntity
  8
上書線
100
AcDbLine
 10
8908.284377161388
 20
4151.130530597801
 30
0.0
 11
8156.862865192845
 21
4151.130530597801
 31
0.0
  0
LINE
  5
25D2
330
18
100
AcDbEntity
  8
上書線
100
AcDbLine
 10
8908.284377161388
 20
4251.130530597801
 30
0.0
 11
8156.862865192845
 21
4251.130530597801
 31
0.0
  0
LINE
  5
25D3
330
18
100
AcDbEntity
  8
上書線
100
AcDbLine
 10
8908.284377161388
 20
4351.130530597801
 30
0.0
 11
8156.862865192845
 21
4351.130530597801
 31
0.0
  0
LINE
  5
25D4
330
18
100
AcDbEntity
  8
上書線
100
AcDbLine
 10
8908.284377161388
 20
4451.130530597801
 30
0.0
 11
8156.862865192845
 21
4451.130530597801
 31
0.0
  0
LINE
  5
25D5
330
18
100
AcDbEntity
  8
上書線
100
AcDbLine
 10
8908.284377161388
 20
4551.130530597801
 30
0.0
 11
8156.862865192845
 21
4551.130530597801
 31
0.0
  0
LINE
  5
25D6
330
18
100
AcDbEntity
  8
上書線
100
AcDbLine
 10
8908.284377161388
 20
4651.130530597801
 30
0.0
 11
8156.862865192845
 21
4651.130530597801
 31
0.0
  0
LINE
  5
25D7
330
18
100
AcDbEntity
  8
上書線
100
AcDbLine
 10
8908.284377161388
 20
4051.130530597801
 30
0.0
 11
8156.862865192845
 21
4051.130530597801
 31
0.0
  0
MTEXT
  5
25D8
330
18
100
AcDbEntity
  8
上書線
100
AcDbMText
 10
8628.645529532574
 20
4230.841727295404
 30
0.0
 40
50.0
 41
1096.913
 71
     1
 72
     5
  1
1889
 73
     1
 44
1.0
  0
MTEXT
  5
25D9
330
18
100
AcDbEntity
  8
上書線
100
AcDbMText
 10
8628.645529532574
 20
4130.841727295403
 30
0.0
 40
50.0
 41
1096.913
 71
     1
 72
     5
  1
1961
 73
     1
 44
1.0
  0
MTEXT
  5
25DA
330
18
100
AcDbEntity
  8
上書線
100
AcDbMText
 10
8628.645529532574
 20
4330.841727295403
 30
0.0
 40
50.0
 41
1096.913
 71
     1
 72
     5
  1
1818
 73
     1
 44
1.0
  0
MTEXT
  5
25DB
330
18
100
AcDbEntity
  8
上書線
100
AcDbMText
 10
8628.645529532574
 20
4430.841727295404
 30
0.0
 40
50.0
 41
1096.913
 71
     1
 72
     5
  1
1747
 73
     1
 44
1.0
  0
MTEXT
  5
25DE
330
18
100
AcDbEntity
  8
上書線
100
AcDbMText
 10
8253.315695176407
 20
4825.203299470831
 30
0.0
 40
50.0
 41
1096.913
 71
     1
 72
     5
  1
1050
 73
     1
 44
1.0
  0
MTEXT
  5
25DF
330
18
100
AcDbEntity
  8
上書線
100
AcDbMText
 10
8253.315695176407
 20
4925.203299470831
 30
0.0
 40
50.0
 41
1096.913
 71
     1
 72
     5
  1
1000
 73
     1
 44
1.0
  0
MTEXT
  5
25E0
330
18
100
AcDbEntity
  8
上書線
100
AcDbMText
 10
8284.925660956004
 20
5025.203299470831
 30
0.0
 40
50.0
 41
1096.913
 71
     1
 72
     5
  1
950
 73
     1
 44
1.0
  0
MTEXT
  5
25E1
330
18
100
AcDbEntity
  8
上書線
100
AcDbMText
 10
8284.925660956004
 20
5125.203299470831
 30
0.0
 40
50.0
 41
1096.913
 71
     1
 72
     5
  1
900
 73
     1
 44
1.0
  0
MTEXT
  5
25E2
330
18
100
AcDbEntity
  8
上書線
100
AcDbMText
 10
8284.925660956004
 20
5225.20329947083
 30
0.0
 40
50.0
 41
1096.913
 71
     1
 72
     5
  1
850
 73
     1
 44
1.0
  0
MTEXT
  5
25E3
330
18
100
AcDbEntity
  8
上書線
100
AcDbMText
 10
8284.925660956004
 20
5325.203299470831
 30
0.0
 40
50.0
 41
1096.913
 71
     1
 72
     5
  1
800
 73
     1
 44
1.0
  0
MTEXT
  5
25E4
330
18
100
AcDbEntity
  8
上書線
100
AcDbMText
 10
8284.925660956004
 20
5425.203299470831
 30
0.0
 40
50.0
 41
1096.913
 71
     1
 72
     5
  1
750
 73
     1
 44
1.0
  0
MTEXT
  5
25E5
330
18
100
AcDbEntity
  8
上書線
100
AcDbMText
 10
8284.925660956004
 20
5525.203299470831
 30
0.0
 40
50.0
 41
1096.913
 71
     1
 72
     5
  1
700
 73
     1
 44
1.0
  0
MTEXT
  5
25E6
330
18
100
AcDbEntity
  8
上書線
100
AcDbMText
 10
8284.925660956004
 20
5625.203299470831
 30
0.0
 40
50.0
 41
1096.913
 71
     1
 72
     5
  1
650
 73
     1
 44
1.0
  0
MTEXT
  5
25E7
330
18
100
AcDbEntity
  8
上書線
100
AcDbMText
 10
8284.925660956004
 20
5725.20329947083
 30
0.0
 40
50.0
 41
1096.913
 71
     1
 72
     5
  1
600
 73
     1
 44
1.0
  0
LINE
  5
25E8
330
18
100
AcDbEntity
  8
上書線
100
AcDbLine
 10
8908.284377161388
 20
4751.130530597801
 30
0.0
 11
8156.862865192845
 21
4751.130530597801
 31
0.0
  0
LINE
  5
25E9
330
18
100
AcDbEntity
  8
上書線
100
AcDbLine
 10
8908.284377161388
 20
4851.130530597801
 30
0.0
 11
8156.862865192845
 21
4851.130530597801
 31
0.0
  0
LINE
  5
25EA
330
18
100
AcDbEntity
  8
上書線
100
AcDbLine
 10
8908.284377161388
 20
4951.130530597801
 30
0.0
 11
8156.862865192845
 21
4951.130530597801
 31
0.0
  0
LINE
  5
25EB
330
18
100
AcDbEntity
  8
上書線
100
AcDbLine
 10
8908.284377161388
 20
5051.130530597801
 30
0.0
 11
8156.862865192845
 21
5051.130530597801
 31
0.0
  0
LINE
  5
25EC
330
18
100
AcDbEntity
  8
上書線
100
AcDbLine
 10
8908.284377161388
 20
5151.130530597801
 30
0.0
 11
8156.862865192845
 21
5151.130530597801
 31
0.0
  0
LINE
  5
25ED
330
18
100
AcDbEntity
  8
上書線
100
AcDbLine
 10
8908.284377161388
 20
5251.130530597801
 30
0.0
 11
8156.862865192845
 21
5251.130530597801
 31
0.0
  0
LINE
  5
25EE
330
18
100
AcDbEntity
  8
上書線
100
AcDbLine
 10
8908.284377161388
 20
5351.130530597801
 30
0.0
 11
8156.862865192845
 21
5351.130530597801
 31
0.0
  0
LINE
  5
25EF
330
18
100
AcDbEntity
  8
上書線
100
AcDbLine
 10
8908.284377161388
 20
5451.130530597801
 30
0.0
 11
8156.862865192845
 21
5451.130530597801
 31
0.0
  0
LINE
  5
25F0
330
18
100
AcDbEntity
  8
上書線
100
AcDbLine
 10
8908.284377161388
 20
5551.130530597801
 30
0.0
 11
8156.862865192845
 21
5551.130530597801
 31
0.0
  0
LINE
  5
25F1
330
18
100
AcDbEntity
  8
上書線
100
AcDbLine
 10
8908.284377161388
 20
5651.130530597801
 30
0.0
 11
8156.862865192845
 21
5651.130530597801
 31
0.0
  0
LINE
  5
25F2
330
18
100
AcDbEntity
  8
上書線
100
AcDbLine
 10
8908.284377161388
 20
5751.130530597801
 30
0.0
 11
8156.862865192845
 21
5751.130530597801
 31
0.0
  0
LINE
  5
25F3
330
18
100
AcDbEntity
  8
上書線
100
AcDbLine
 10
8908.284377161388
 20
5871.130530597802
 30
0.0
 11
8156.862865192845
 21
5871.130530597802
 31
0.0
  0
MTEXT
  5
25F4
330
18
100
AcDbEntity
  8
上書線
100
AcDbMText
 10
8332.327569042025
 20
5841.909881136223
 30
0.0
 40
50.0
 41
1096.913
 71
     1
 72
     5
  1
(㎜）
 73
     1
 44
1.0
  0
MTEXT
  5
25F5
330
18
100
AcDbEntity
  8
上書線
100
AcDbMText
 10
8236.791387583037
 20
5837.454256578835
 30
0.0
 40
50.0
 41
1096.913
 71
     1
 72
     5
  1
H
 73
     1
 44
1.0
  0
MTEXT
  5
25F6
330
18
100
AcDbEntity
  8
上書線
100
AcDbMText
 10
8661.271218950345
 20
5730.841727295404
 30
0.0
 40
50.0
 41
1096.913
 71
     1
 72
     5
  1
821
 73
     1
 44
1.0
  0
MTEXT
  5
25FE
330
18
100
AcDbEntity
  8
上書線
100
AcDbMText
 10
8661.271218950345
 20
5530.841727295404
 30
0.0
 40
50.0
 41
1096.913
 71
     1
 72
     5
  1
963
 73
     1
 44
1.0
  0
MTEXT
  5
25FF
330
18
100
AcDbEntity
  8
上書線
100
AcDbMText
 10
8661.271218950345
 20
5630.841727295404
 30
0.0
 40
50.0
 41
1096.913
 71
     1
 72
     5
  1
892
 73
     1
 44
1.0
  0
MTEXT
  5
2600
330
18
100
AcDbEntity
  8
上書線
100
AcDbMText
 10
8379.106974290065
 20
6023.939516970687
 30
0.0
 40
60.0
 41
1096.913
 71
     1
 72
     5
  1
重量表
 73
     1
 44
1.0
  0
MTEXT
  5
2601
330
18
100
AcDbEntity
  8
上書線
100
AcDbMText
 10
8559.669532960185
 20
5841.909881136223
 30
0.0
 40
50.0
 41
1096.913
 71
     1
 72
     5
  1
重量
 73
     1
 44
1.0
  0
MTEXT
  5
2602
330
18
100
AcDbEntity
  8
上書線
100
AcDbMText
 10
8749.165299556299
 20
5841.909881136223
 30
0.0
 40
50.0
 41
1096.913
 71
     1
 72
     5
  1
(㎏）
 73
     1
 44
1.0
  0
LINE
  5
2632
330
18
100
AcDbEntity
  8
点線
100
AcDbLine
 10
5716.051975151613
 20
5614.74069819697
 30
0.0
 11
5716.051975151613
 21
4814.74069819697
 31
0.0
  0
LINE
  5
2633
102
{ACAD_REACTORS
330
263E
102
}
330
18
100
AcDbEntity
  8
OBJECT
100
AcDbLine
 10
5716.051975151613
 20
4814.74069819697
 30
0.0
 11
6516.051975151613
 21
4814.74069819697
 31
0.0
  0
LINE
  5
2634
102
{ACAD_REACTORS
330
263E
102
}
330
18
100
AcDbEntity
  8
OBJECT
100
AcDbLine
 10
6516.051975151613
 20
4814.74069819697
 30
0.0
 11
6516.051975151613
 21
5614.74069819697
 31
0.0
  0
LINE
  5
2635
330
18
100
AcDbEntity
  8
点線
100
AcDbLine
 10
6516.051975151613
 20
5614.74069819697
 30
0.0
 11
5716.051975151613
 21
5614.74069819697
 31
0.0
  0
LINE
  5
2636
102
{ACAD_REACTORS
330
263F
102
}
330
18
100
AcDbEntity
  8
OBJECT
100
AcDbLine
 10
5666.051975151614
 20
5664.74069819697
 30
0.0
 11
5666.051975151614
 21
4764.74069819697
 31
0.0
  0
LINE
  5
2637
102
{ACAD_REACTORS
330
263E
102
}
330
18
100
AcDbEntity
  8
OBJECT
100
AcDbLine
 10
5666.051975151614
 20
4764.74069819697
 30
0.0
 11
6566.051975151613
 21
4764.74069819697
 31
0.0
  0
LINE
  5
2638
102
{ACAD_REACTORS
330
263E
102
}
330
18
100
AcDbEntity
  8
OBJECT
100
AcDbLine
 10
6566.051975151613
 20
4764.74069819697
 30
0.0
 11
6566.051975151613
 21
5664.74069819697
 31
0.0
  0
LINE
  5
2639
102
{ACAD_REACTORS
330
263F
102
}
330
18
100
AcDbEntity
  8
OBJECT
100
AcDbLine
 10
6566.051975151613
 20
5664.74069819697
 30
0.0
 11
5666.051975151614
 21
5664.74069819697
 31
0.0
  0
LINE
  5
263B
102
{ACAD_REACTORS
330
263F
102
}
330
18
100
AcDbEntity
  8
OBJECT
100
AcDbLine
 10
6566.051975151613
 20
5664.74069819697
 30
0.0
 11
5666.051975151614
 21
4764.74069819697
 31
0.0
  0
LINE
  5
263C
102
{ACAD_REACTORS
330
263E
102
}
330
18
100
AcDbEntity
  8
OBJECT
100
AcDbLine
 10
6566.051975151613
 20
5664.74069819697
 30
0.0
 11
6516.051975151613
 21
5614.74069819697
 31
0.0
  0
LINE
  5
263D
102
{ACAD_REACTORS
330
263E
102
}
330
18
100
AcDbEntity
  8
OBJECT
100
AcDbLine
 10
5716.051975151613
 20
4814.74069819697
 30
0.0
 11
5666.051975151614
 21
4764.74069819697
 31
0.0
  0
HATCH
  5
263E
330
18
100
AcDbEntity
  8
OBJECT
100
AcDbHatch
 10
0.0
 20
0.0
 30
0.0
210
0.0
220
0.0
230
1.0
  2
AR-SAND
 70
     0
 71
     1
 91
        1
 92
        1
 93
        6
 72
     1
 10
6566.051975151613
 20
4764.74069819697
 11
6566.051975151613
 21
5664.74069819697
 72
     1
 10
6566.051975151613
 20
5664.74069819697
 11
6516.051975151613
 21
5614.74069819697
 72
     1
 10
6516.051975151613
 20
5614.74069819697
 11
6516.051975151613
 21
4814.74069819697
 72
     1
 10
6516.051975151613
 20
4814.74069819697
 11
5716.051975151613
 21
4814.74069819697
 72
     1
 10
5716.051975151613
 20
4814.74069819697
 11
5666.051975151614
 21
4764.74069819697
 72
     1
 10
5666.051975151614
 20
4764.74069819697
 11
6566.051975151613
 21
4764.74069819697
 97
        6
330
2638
330
263C
330
2634
330
2633
330
263D
330
2637
 75
     0
 76
     1
 52
0.0
 41
1.0
 77
     0
 78
     4
 53
37.5
 43
10664.52909003732
 44
-1338.076304101184
 45
-1.600031295984045
 46
48.94132373293423
 79
     6
 49
0.0
 49
-38.608
 49
0.0
 49
-43.18
 49
0.0
 49
-41.275
 53
7.499999999999999
 43
10664.52909003732
 44
-1338.076304101184
 45
44.95232831380026
 46
71.68251005683543
 79
     6
 49
0.0
 49
-20.828
 49
0.0
 49
-34.798
 49
0.0
 49
-13.335
 53
327.4999999999999
 43
10633.28709003731
 44
-1338.076304101184
 45
79.09923702414579
 46
0.1437184678545691
 79
     6
 49
0.0
 49
-12.7
 49
0.0
 49
-45.72
 49
0.0
 49
-59.69
 53
317.5
 43
10633.28709003731
 44
-1338.076304101184
 45
76.35564524722972
 46
22.29293232572162
 79
     6
 49
0.0
 49
-6.349999999999999
 49
0.0
 49
-29.97199999999999
 49
0.0
 49
-34.29
 98
        1
 10
10664.52909003732
 20
-1338.076304101184
  0
LINE
  5
2640
330
18
100
AcDbEntity
  8
OBJECT
100
AcDbLine
 10
5566.051975151613
 20
5764.74069819697
 30
0.0
 11
5566.051975151613
 21
4664.74069819697
 31
0.0
  0
LINE
  5
2641
330
18
100
AcDbEntity
  8
OBJECT
100
AcDbLine
 10
5566.051975151613
 20
4664.74069819697
 30
0.0
 11
6666.051975151614
 21
4664.74069819697
 31
0.0
  0
LINE
  5
2642
330
18
100
AcDbEntity
  8
OBJECT
100
AcDbLine
 10
6666.051975151614
 20
4664.74069819697
 30
0.0
 11
6666.051975151614
 21
5764.74069819697
 31
0.0
  0
LINE
  5
2643
330
18
100
AcDbEntity
  8
OBJECT
100
AcDbLine
 10
6666.051975151614
 20
5764.74069819697
 30
0.0
 11
5566.051975151613
 21
5764.74069819697
 31
0.0
  0
LINE
  5
2678
330
18
100
AcDbEntity
  8
OBJECT
100
AcDbLine
 10
6816.051975151613
 20
3514.74069819697
 30
0.0
 11
6816.051975151613
 21
4514.74069819697
 31
0.0
  0
LINE
  5
2679
330
18
100
AcDbEntity
  8
点線
100
AcDbLine
 10
6966.051975151613
 20
4464.74069819697
 30
0.0
 11
6966.051975151613
 21
3514.74069819697
 31
0.0
  0
LINE
  5
267A
330
18
100
AcDbEntity
  8
OBJECT
100
AcDbLine
 10
7916.051975151614
 20
4514.74069819697
 30
0.0
 11
7916.051975151614
 21
3514.74069819697
 31
0.0
  0
LINE
  5
267B
330
18
100
AcDbEntity
  8
点線
100
AcDbLine
 10
7766.051975151613
 20
4464.74069819697
 30
0.0
 11
7766.051975151613
 21
3514.74069819697
 31
0.0
  0
LINE
  5
267C
330
18
100
AcDbEntity
  8
OBJECT
100
AcDbLine
 10
7916.051975151614
 20
3514.74069819697
 30
0.0
 11
6816.051975151613
 21
3514.74069819697
 31
0.0
  0
LINE
  5
267D
330
18
100
AcDbEntity
  8
点線
100
AcDbLine
 10
7816.051975151613
 20
4464.74069819697
 30
0.0
 11
6916.051975151614
 21
4464.74069819697
 31
0.0
  0
LINE
  5
267E
330
18
100
AcDbEntity
  8
OBJECT
100
AcDbLine
 10
6816.051975151613
 20
4514.74069819697
 30
0.0
 11
7916.051975151614
 21
4514.74069819697
 31
0.0
  0
LINE
  5
267F
330
18
100
AcDbEntity
  8
点線
100
AcDbLine
 10
7816.051975151613
 20
4514.74069819697
 30
0.0
 11
7816.051975151613
 21
4464.74069819697
 31
0.0
  0
LINE
  5
2680
330
18
100
AcDbEntity
  8
点線
100
AcDbLine
 10
6916.051975151614
 20
4464.74069819697
 30
0.0
 11
6916.051975151614
 21
4514.74069819697
 31
0.0
  0
MTEXT
  5
268D
330
18
100
AcDbEntity
  8
上書線
100
AcDbMText
 10
8628.645529532574
 20
5130.841727295404
 30
0.0
 40
50.0
 41
1096.913
 71
     1
 72
     5
  1
1248
 73
     1
 44
1.0
  0
MTEXT
  5
268E
330
18
100
AcDbEntity
  8
上書線
100
AcDbMText
 10
8628.645529532574
 20
5430.841727295404
 30
0.0
 40
50.0
 41
1096.913
 71
     1
 72
     5
  1
1034
 73
     1
 44
1.0
  0
MTEXT
  5
268F
330
18
100
AcDbEntity
  8
上書線
100
AcDbMText
 10
8628.645529532574
 20
5330.841727295403
 30
0.0
 40
50.0
 41
1096.913
 71
     1
 72
     5
  1
1106
 73
     1
 44
1.0
  0
MTEXT
  5
2690
330
18
100
AcDbEntity
  8
上書線
100
AcDbMText
 10
8628.645529532574
 20
5230.841727295404
 30
0.0
 40
50.0
 41
1096.913
 71
     1
 72
     5
  1
1177
 73
     1
 44
1.0
  0
MTEXT
  5
269E
330
18
100
AcDbEntity
  8
上書線
100
AcDbMText
 10
8628.645529532574
 20
4630.841727295403
 30
0.0
 40
50.0
 41
1096.913
 71
     1
 72
     5
  1
1604
 73
     1
 44
1.0
  0
MTEXT
  5
269F
330
18
100
AcDbEntity
  8
上書線
100
AcDbMText
 10
8628.645529532574
 20
4530.841727295404
 30
0.0
 40
50.0
 41
1096.913
 71
     1
 72
     5
  1
1676
 73
     1
 44
1.0
  0
MTEXT
  5
26AD
330
18
100
AcDbEntity
  8
上書線
100
AcDbMText
 10
8628.645529532574
 20
4730.841727295404
 30
0.0
 40
50.0
 41
1096.913
 71
     1
 72
     5
  1
1533
 73
     1
 44
1.0
  0
MTEXT
  5
26AE
330
18
100
AcDbEntity
  8
上書線
100
AcDbMText
 10
8628.645529532574
 20
5030.841727295404
 30
0.0
 40
50.0
 41
1096.913
 71
     1
 72
     5
  1
1319
 73
     1
 44
1.0
  0
MTEXT
  5
26AF
330
18
100
AcDbEntity
  8
上書線
100
AcDbMText
 10
8628.645529532574
 20
4930.841727295404
 30
0.0
 40
50.0
 41
1096.913
 71
     1
 72
     5
  1
1391
 73
     1
 44
1.0
  0
MTEXT
  5
26B0
330
18
100
AcDbEntity
  8
上書線
100
AcDbMText
 10
8628.645529532574
 20
4830.841727295403
 30
0.0
 40
50.0
 41
1096.913
 71
     1
 72
     5
  1
1462
 73
     1
 44
1.0
  0
LINE
  5
28A2
330
18
100
AcDbEntity
  8
WUWAGAKI
100
AcDbLine
 10
9231.144525846554
 20
6279.004465519509
 30
0.0
 11
4960.425607219636
 21
6279.004465519509
 31
0.0
  0
LINE
  5
28A3
330
18
100
AcDbEntity
  8
WUWAGAKI
100
AcDbLine
 10
4960.425607219636
 20
3352.854613723385
 30
0.0
 11
9231.144525846554
 21
3352.854613723385
 31
0.0
  0
LINE
  5
28A9
330
18
100
AcDbEntity
  8
WUWAGAKI
100
AcDbLine
 10
4960.425607219636
 20
6279.004465519509
 30
0.0
 11
4960.425607219636
 21
3352.854613723385
 31
0.0
  0
LINE
  5
28AA
330
18
100
AcDbEntity
  8
WUWAGAKI
 48
10.0
100
AcDbLine
 10
6082.483516702722
 20
5181.172239748078
 30
0.0
 11
6801.101787545895
 21
4875.442035786956
 31
0.0
210
0.0
220
0.0
230
-1.0
1001
ACAD
1000
DSTYLE
1002
{
1070
    78
1070
     8
1070
   270
1070
     8
1070
   140
1040
2.5
1070
    74
1070
     0
1070
   172
1070
     1
1070
    73
1070
     0
1070
    77
1070
     1
1070
    40
1040
10.0
1070
   147
1040
0.625
1070
    42
1040
0.625
1070
    44
1040
1.25
1070
    43
1040
3.75
1070
   141
1040
2.5
1070
    41
1040
2.5
1070
   273
1070
     8
1070
   274
1070
     4
1070
   143
1040
0.0394
1070
   171
1070
     4
1002
}
  0
LINE
  5
28D4
330
18
100
AcDbEntity
  8
OBJECT
 48
10.0
100
AcDbLine
 10
5236.051983915035
 20
4514.74069819697
 30
0.0
 11
5236.051983915032
 21
3514.740698196969
 31
0.0
  0
LINE
  5
28D6
330
18
100
AcDbEntity
  8
0
 48
10.0
100
AcDbLine
 10
5536.051975151613
 20
3514.740698196969
 30
0.0
 11
5206.051975151613
 21
3514.740698196969
 31
0.0
  0
SOLID
  5
28D7
330
18
100
AcDbEntity
  8
0
  6
ByBlock
 62
     0
 48
10.0
100
AcDbTrace
 10
5242.301975151612
 20
3552.240698196989
 30
0.0
 11
5229.801975151612
 21
3552.240698196989
 31
0.0
 12
5236.05197515161
 22
3514.740698196989
 32
0.0
 13
5236.05197515161
 23
3514.740698196989
 33
0.0
  0
MTEXT
  5
28D8
330
18
100
AcDbEntity
  8
0
  6
ByBlock
 62
     0
 48
10.0
100
AcDbMText
 10
5206.051975151613
 20
4014.74069819697
 30
0.0
 40
37.5
 41
0.0
 71
     5
 72
     1
  1
H
 11
0.0000000000000001
 21
1.0
 31
0.0
 73
     1
 44
1.0
  0
LINE
  5
28D9
330
18
100
AcDbEntity
  8
0
 48
10.0
100
AcDbLine
 10
5536.051975151613
 20
4514.74069819697
 30
0.0
 11
5206.051975151613
 21
4514.74069819697
 31
0.0
  0
SOLID
  5
28DA
330
18
100
AcDbEntity
  8
0
  6
ByBlock
 62
     0
 48
10.0
100
AcDbTrace
 10
5242.301975151612
 20
4477.240698196946
 30
0.0
 11
5229.801975151612
 21
4477.240698196946
 31
0.0
 12
5236.05197515161
 22
4514.740698196946
 32
0.0
 13
5236.05197515161
 23
4514.740698196946
 33
0.0
  0
LINE
  5
2906
330
18
100
AcDbEntity
  8
OBJECT
 48
10.0
100
AcDbLine
 10
6801.101787545893
 20
4875.442035786956
 30
0.0
 11
7046.101787545893
 21
4875.442035786956
 31
0.0
  0
MTEXT
  5
2907
330
18
100
AcDbEntity
  8
0
  6
ByBlock
 62
     0
 48
10.0
100
AcDbMText
 10
6918.601787545894
 20
4905.442035786956
 30
0.0
 40
30.0
 41
0.0
 71
     5
 72
     1
  1
グレーチング
 73
     1
 44
1.0
  0
LINE
  5
2908
330
18
100
AcDbEntity
  8
WUWAGAKI
 48
10.0
100
AcDbLine
 10
6583.305435101967
 20
4757.400356260689
 30
0.0
 11
6801.101787545893
 21
4664.74069819697
 31
0.0
210
0.0
220
0.0
230
-1.0
1001
ACAD
1000
DSTYLE
1002
{
1070
    78
1070
     8
1070
   270
1070
     8
1070
   140
1040
2.5
1070
    74
1070
     0
1070
   172
1070
     1
1070
    73
1070
     0
1070
    77
1070
     1
1070
    40
1040
10.0
1070
   147
1040
0.625
1070
    42
1040
0.625
1070
    44
1040
1.25
1070
    43
1040
3.75
1070
   141
1040
2.5
1070
    41
1040
2.5
1070
   273
1070
     8
1070
   274
1070
     4
1070
   143
1040
0.0394
1070
   171
1070
     4
1002
}
  0
SOLID
  5
2909
330
18
100
AcDbEntity
  8
0
  6
ByBlock
 62
     0
 48
10.0
100
AcDbTrace
 10
6602.960173317431
 20
4755.6249202185
 30
0.0
 11
6598.00866704518
 21
4744.147438541937
 31
0.0
 12
6566.051975151613
 22
4764.74069819697
 32
0.0
 13
6566.051975151613
 23
4764.74069819697
 33
0.0
  0
MTEXT
  5
290A
330
18
100
AcDbEntity
  8
0
  6
ByBlock
 62
     0
 48
10.0
100
AcDbMText
 10
6853.601787545895
 20
4694.740698196969
 30
0.0
 40
30.0
 41
0.0
 71
     5
 72
     1
  1
受枠
 73
     1
 44
1.0
  0
LINE
  5
290B
330
18
100
AcDbEntity
  8
OBJECT
 48
10.0
100
AcDbLine
 10
6801.101787545893
 20
4664.74069819697
 30
0.0
 11
6906.101787545894
 21
4664.74069819697
 31
0.0
  0
SOLID
  5
290C
330
18
100
AcDbEntity
  8
0
  6
ByBlock
 62
     0
 48
10.0
100
AcDbTrace
 10
5603.551975151635
 20
6088.490698196972
 30
0.0
 11
5603.551975151635
 21
6100.990698196973
 31
0.0
 12
5566.051975151634
 22
6094.740698196973
 32
0.0
 13
5566.051975151634
 23
6094.740698196973
 33
0.0
  0
SOLID
  5
290D
330
18
100
AcDbEntity
  8
0
  6
ByBlock
 62
     0
 48
10.0
100
AcDbTrace
 10
5603.551987010767
 20
5938.490687457022
 30
0.0
 11
5603.551987010767
 21
5950.990687457023
 31
0.0
 12
5566.051987010768
 22
5944.740687457024
 32
0.0
 13
5566.051987010768
 23
5944.740687457024
 33
0.0
  0
LINE
  5
290E
330
18
100
AcDbEntity
  8
OBJECT
 48
10.0
100
AcDbLine
 10
5566.051975151613
 20
5944.74068745702
 30
0.0
 11
6666.051975151614
 21
5944.74068745702
 31
0.0
  0
LINE
  5
290F
330
18
100
AcDbEntity
  8
OBJECT
 48
10.0
100
AcDbLine
 10
6666.051975151614
 20
6094.740689433548
 30
0.0
 11
5566.051975151613
 21
6094.74068943355
 31
0.0
  0
LINE
  5
2916
330
18
100
AcDbEntity
  8
0
 48
10.0
100
AcDbLine
 10
5566.051975151613
 20
5794.74069819697
 30
0.0
 11
5566.051975151613
 21
6124.740698196969
 31
0.0
  0
MTEXT
  5
291B
330
18
100
AcDbEntity
  8
0
  6
ByBlock
 62
     0
 48
10.0
100
AcDbMText
 10
6116.051975151613
 20
6124.740698196971
 30
0.0
 40
37.5
 41
0.0
 71
     5
 72
     1
  1
1100
 73
     1
 44
1.0
  0
SOLID
  5
291C
330
18
100
AcDbEntity
  8
0
  6
ByBlock
 62
     0
 48
10.0
100
AcDbTrace
 10
6553.551975151616
 20
5938.490698196968
 30
0.0
 11
6553.551975151616
 21
5950.990698196967
 31
0.0
 12
6516.051975151616
 22
5944.740698196969
 32
0.0
 13
6516.051975151616
 23
5944.740698196969
 33
0.0
  0
SOLID
  5
29FC
330
18
100
AcDbEntity
  8
0
  6
ByBlock
 62
     0
 48
10.0
100
AcDbTrace
 10
6119.391714868537
 20
5172.056461769609
 30
0.0
 11
6114.440208596287
 21
5160.578980093047
 31
0.0
 12
6082.483516702719
 22
5181.172239748079
 32
0.0
 13
6082.483516702719
 23
5181.172239748079
 33
0.0
  0
LINE
  5
2A21
330
18
100
AcDbEntity
  8
0
 48
10.0
100
AcDbLine
 10
5716.051975151613
 20
5794.74069819697
 30
0.0
 11
5716.051975151613
 21
5974.74069819697
 31
0.0
  0
SOLID
  5
2A22
330
18
100
AcDbEntity
  8
0
  6
ByBlock
 62
     0
 48
10.0
100
AcDbTrace
 10
5678.551975151613
 20
5938.490698196968
 30
0.0
 11
5678.551975151613
 21
5950.990698196967
 31
0.0
 12
5716.051975151613
 22
5944.740698196969
 32
0.0
 13
5716.051975151613
 23
5944.740698196969
 33
0.0
  0
MTEXT
  5
2A23
330
18
100
AcDbEntity
  8
0
  6
ByBlock
 62
     0
 48
10.0
100
AcDbMText
 10
5641.051975151613
 20
5974.740689433549
 30
0.0
 40
37.5
 41
0.0
 71
     5
 72
     1
  1
150
 73
     1
 44
1.0
  0
SOLID
  5
2A24
330
18
100
AcDbEntity
  8
0
  6
ByBlock
 62
     0
 48
10.0
100
AcDbTrace
 10
5753.551975151613
 20
5938.490698196968
 30
0.0
 11
5753.551975151613
 21
5950.990698196967
 31
0.0
 12
5716.051975151613
 22
5944.740698196969
 32
0.0
 13
5716.051975151613
 23
5944.740698196969
 33
0.0
  0
LINE
  5
2A25
330
18
100
AcDbEntity
  8
0
 48
10.0
100
AcDbLine
 10
6516.051975151613
 20
5794.74069819697
 30
0.0
 11
6516.051975151613
 21
5974.74069819697
 31
0.0
  0
MTEXT
  5
2A26
330
18
100
AcDbEntity
  8
0
  6
ByBlock
 62
     0
 48
10.0
100
AcDbMText
 10
6116.051975151613
 20
5974.740698196971
 30
0.0
 40
37.5
 41
0.0
 71
     5
 72
     1
  1
800
 73
     1
 44
1.0
  0
SOLID
  5
2A27
330
18
100
AcDbEntity
  8
0
  6
ByBlock
 62
     0
 48
10.0
100
AcDbTrace
 10
6478.552039591308
 20
5938.490698196968
 30
0.0
 11
6478.552039591308
 21
5950.990698196967
 31
0.0
 12
6516.052039591308
 22
5944.740698196969
 32
0.0
 13
6516.052039591308
 23
5944.740698196969
 33
0.0
  0
LINE
  5
2A2C
330
18
100
AcDbEntity
  8
0
 48
10.0
100
AcDbLine
 10
6666.051975151614
 20
5794.74069819697
 30
0.0
 11
6666.051975151614
 21
6124.740698196969
 31
0.0
  0
MTEXT
  5
2A2D
330
18
100
AcDbEntity
  8
0
  6
ByBlock
 62
     0
 48
10.0
100
AcDbMText
 10
6591.051975151613
 20
5974.740689433549
 30
0.0
 40
37.5
 41
0.0
 71
     5
 72
     1
  1
150
 73
     1
 44
1.0
  0
SOLID
  5
2A2E
330
18
100
AcDbEntity
  8
0
  6
ByBlock
 62
     0
 48
10.0
100
AcDbTrace
 10
6628.551963292458
 20
5938.490687457022
 30
0.0
 11
6628.551963292458
 21
5950.990687457023
 31
0.0
 12
6666.051963292459
 22
5944.740687457024
 32
0.0
 13
6666.051963292459
 23
5944.740687457024
 33
0.0
  0
SOLID
  5
2A2F
330
18
100
AcDbEntity
  8
0
  6
ByBlock
 62
     0
 48
10.0
100
AcDbTrace
 10
6628.551975151592
 20
6088.490698196972
 30
0.0
 11
6628.551975151592
 21
6100.990698196973
 31
0.0
 12
6666.051975151592
 22
6094.740698196973
 32
0.0
 13
6666.051975151592
 23
6094.740698196973
 33
0.0
  0
LINE
  5
2A30
330
18
100
AcDbEntity
  8
WUWAGAKI
100
AcDbLine
 10
9231.144525846554
 20
3352.854613723385
 30
0.0
 11
9231.144525846554
 21
6279.004465519509
 31
0.0
  0
LINE
  5
2A36
330
18
100
AcDbEntity
  8
WUWAGAKI
100
AcDbLine
 10
8071.844937938175
 20
3841.334580794757
 30
0.0
 11
9164.641513038597
 21
3841.334580794757
 31
0.0
  0
LINE
  5
2A37
330
18
100
AcDbEntity
  8
WUWAGAKI
100
AcDbLine
 10
8071.844937938175
 20
3746.80429284962
 30
0.0
 11
9162.009690702836
 21
3746.80429284962
 31
0.0
  0
LINE
  5
2A38
330
18
100
AcDbEntity
  8
WUWAGAKI
100
AcDbLine
 10
8071.844937938175
 20
3746.80429284962
 30
0.0
 11
9162.009690702836
 21
3746.80429284962
 31
0.0
  0
LINE
  5
2A39
330
18
100
AcDbEntity
  8
WUWAGAKI
100
AcDbLine
 10
8071.844937938175
 20
3421.354148165188
 30
0.0
 11
9164.641513038597
 21
3421.354148165188
 31
0.0
  0
LINE
  5
2A3A
330
18
100
AcDbEntity
  8
WUWAGAKI
100
AcDbLine
 10
8071.844937938175
 20
3650.897907885005
 30
0.0
 11
9164.641513038596
 21
3650.897907885005
 31
0.0
  0
LINE
  5
2A3B
330
18
100
AcDbEntity
  8
WUWAGAKI
100
AcDbLine
 10
8071.844937938175
 20
3552.382843720399
 30
0.0
 11
9164.641513038596
 21
3552.382843720399
 31
0.0
  0
TEXT
  5
2A3C
330
18
100
AcDbEntity
  8
WUWAGAKI
100
AcDbText
 10
8378.297812869515
 20
3673.468985645416
 30
0.0
 40
47.25
  1
800×800×150/150×H
100
AcDbText
  0
TEXT
  5
2A3D
330
18
100
AcDbEntity
  8
WUWAGAKI
100
AcDbText
 10
8310.550370837649
 20
3452.961714971574
 30
0.0
 40
60.0
  1
㈱　ウ　チ　コ　ン
100
AcDbText
  0
TEXT
  5
2A4D
330
18
100
AcDbEntity
  8
WUWAGAKI
100
AcDbText
 10
8144.371139461537
 20
3575.453387038673
 30
0.0
 40
45.0
  1
縮尺
100
AcDbText
  0
LINE
  5
2A4E
330
18
100
AcDbEntity
  8
WUWAGAKI
100
AcDbLine
 10
8071.844937938175
 20
3841.334580794757
 30
0.0
 11
8071.844937938175
 21
3421.354148165188
 31
0.0
  0
LINE
  5
2A4F
330
18
100
AcDbEntity
  8
WUWAGAKI
100
AcDbLine
 10
8323.961409506683
 20
3841.334580794757
 30
0.0
 11
8323.961409506683
 21
3552.382843720399
 31
0.0
  0
TEXT
  5
2A50
330
18
100
AcDbEntity
  8
WUWAGAKI
100
AcDbText
 10
8378.297812869515
 20
3576.75530246813
 30
0.0
 40
45.0
  1
S＝　1：15
100
AcDbText
  0
TEXT
  5
2A51
330
18
100
AcDbEntity
  8
WUWAGAKI
100
AcDbText
 10
8745.058671442738
 20
3576.804739979671
 30
0.0
 40
45.0
  1
重量
100
AcDbText
  0
LINE
  5
2A52
330
18
100
AcDbEntity
  8
WUWAGAKI
100
AcDbLine
 10
8718.130895690592
 20
3650.897907885005
 30
0.0
 11
8718.130895690592
 21
3552.382843720399
 31
0.0
  0
TEXT
  5
2A53
330
18
100
AcDbEntity
  8
WUWAGAKI
100
AcDbText
 10
8378.297812869515
 20
3770.511019871076
 30
0.0
 40
45.0
  1
集水桝
100
AcDbText
  0
TEXT
  5
2A54
330
18
100
AcDbEntity
  8
WUWAGAKI
100
AcDbText
 10
8116.723381700456
 20
3671.951340030153
 30
0.0
 40
45.0
  1
寸　法
100
AcDbText
  0
TEXT
  5
2A55
330
18
100
AcDbEntity
  8
WUWAGAKI
100
AcDbText
 10
8119.378593586876
 20
3773.090180067135
 30
0.0
 40
45.0
  1
種　別
100
AcDbText
  0
LINE
  5
2A69
330
18
100
AcDbEntity
  8
WUWAGAKI
100
AcDbLine
 10
8902.359322452911
 20
3650.897907885005
 30
0.0
 11
8902.359322452911
 21
3552.382843720399
 31
0.0
  0
LINE
  5
2A6A
330
18
100
AcDbEntity
  8
WUWAGAKI
100
AcDbLine
 10
9164.641513038597
 20
3421.354148165188
 30
0.0
 11
9164.641513038597
 21
3841.334580794757
 31
0.0
  0
LINE
  5
2A9C
330
18
100
AcDbEntity
  8
OBJECT
 48
10.0
100
AcDbLine
 10
5386.051985891562
 20
4664.74069819697
 30
0.0
 11
5386.051985891562
 21
5764.74069819697
 31
0.0
  0
LINE
  5
2A9D
330
18
100
AcDbEntity
  8
OBJECT
 48
10.0
100
AcDbLine
 10
5236.051983915035
 20
5764.74069819697
 30
0.0
 11
5236.051983915032
 21
4664.74069819697
 31
0.0
  0
SOLID
  5
2A9E
330
18
100
AcDbEntity
  8
0
  6
ByBlock
 62
     0
 48
10.0
100
AcDbTrace
 10
5392.301975151615
 20
4852.24069819697
 30
0.0
 11
5379.801975151615
 21
4852.24069819697
 31
0.0
 12
5386.051975151612
 22
4814.74069819697
 32
0.0
 13
5386.051975151612
 23
4814.74069819697
 33
0.0
  0
LINE
  5
2A9F
330
18
100
AcDbEntity
  8
0
 48
10.0
100
AcDbLine
 10
5536.051975151613
 20
4664.74069819697
 30
0.0
 11
5206.051975151613
 21
4664.74069819697
 31
0.0
  0
SOLID
  5
2AA0
330
18
100
AcDbEntity
  8
0
  6
ByBlock
 62
     0
 48
10.0
100
AcDbTrace
 10
5392.301985891561
 20
4702.240710056123
 30
0.0
 11
5379.80198589156
 21
4702.240710056123
 31
0.0
 12
5386.051985891559
 22
4664.740710056124
 32
0.0
 13
5386.051985891559
 23
4664.740710056124
 33
0.0
  0
LINE
  5
2AA1
330
18
100
AcDbEntity
  8
0
 48
10.0
100
AcDbLine
 10
5536.051975151613
 20
4814.74069819697
 30
0.0
 11
5356.051975151613
 21
4814.74069819697
 31
0.0
  0
MTEXT
  5
2AA2
330
18
100
AcDbEntity
  8
0
  6
ByBlock
 62
     0
 48
10.0
100
AcDbMText
 10
5356.051983915033
 20
4739.74069819697
 30
0.0
 40
37.5
 41
0.0
 71
     5
 72
     1
  1
150
 11
0.0000000000000001
 21
1.0
 31
0.0
 73
     1
 44
1.0
  0
SOLID
  5
2AA3
330
18
100
AcDbEntity
  8
0
  6
ByBlock
 62
     0
 48
10.0
100
AcDbTrace
 10
5392.301975151615
 20
4777.24069819697
 30
0.0
 11
5379.801975151615
 21
4777.24069819697
 31
0.0
 12
5386.051975151612
 22
4814.74069819697
 32
0.0
 13
5386.051975151612
 23
4814.74069819697
 33
0.0
  0
SOLID
  5
2AA4
330
18
100
AcDbEntity
  8
0
  6
ByBlock
 62
     0
 48
10.0
100
AcDbTrace
 10
5242.301975151612
 20
4702.240698196991
 30
0.0
 11
5229.801975151611
 21
4702.240698196991
 31
0.0
 12
5236.051975151609
 22
4664.740698196991
 32
0.0
 13
5236.051975151609
 23
4664.740698196991
 33
0.0
  0
MTEXT
  5
2AA5
330
18
100
AcDbEntity
  8
0
  6
ByBlock
 62
     0
 48
10.0
100
AcDbMText
 10
5356.051975151612
 20
5214.74069819697
 30
0.0
 40
37.5
 41
0.0
 71
     5
 72
     1
  1
800
 11
0.0000000000000001
 21
1.0
 31
0.0
 73
     1
 44
1.0
  0
MTEXT
  5
2AA6
330
18
100
AcDbEntity
  8
0
  6
ByBlock
 62
     0
 48
10.0
100
AcDbMText
 10
5206.051975151613
 20
5214.74069819697
 30
0.0
 40
37.5
 41
0.0
 71
     5
 72
     1
  1
1100
 11
0.0000000000000001
 21
1.0
 31
0.0
 73
     1
 44
1.0
  0
LINE
  5
2AA7
330
18
100
AcDbEntity
  8
0
 48
10.0
100
AcDbLine
 10
5536.051975151613
 20
5764.74069819697
 30
0.0
 11
5206.051975151613
 21
5764.74069819697
 31
0.0
  0
MTEXT
  5
2AA8
330
18
100
AcDbEntity
  8
0
  6
ByBlock
 62
     0
 48
10.0
100
AcDbMText
 10
5356.051983915033
 20
5689.74069819697
 30
0.0
 40
37.5
 41
0.0
 71
     5
 72
     1
  1
150
 11
0.0000000000000001
 21
1.0
 31
0.0
 73
     1
 44
1.0
  0
LINE
  5
2AA9
330
18
100
AcDbEntity
  8
0
 48
10.0
100
AcDbLine
 10
5536.051975151613
 20
5614.74069819697
 30
0.0
 11
5356.051975151613
 21
5614.74069819697
 31
0.0
  0
SOLID
  5
2AAA
330
18
100
AcDbEntity
  8
0
  6
ByBlock
 62
     0
 48
10.0
100
AcDbTrace
 10
5392.301975151615
 20
5652.240698196973
 30
0.0
 11
5379.801975151615
 21
5652.240698196973
 31
0.0
 12
5386.051975151612
 22
5614.740698196972
 32
0.0
 13
5386.051975151612
 23
5614.740698196972
 33
0.0
  0
SOLID
  5
2AAB
330
18
100
AcDbEntity
  8
0
  6
ByBlock
 62
     0
 48
10.0
100
AcDbTrace
 10
5392.301975151615
 20
5577.240762636665
 30
0.0
 11
5379.801975151615
 21
5577.240762636665
 31
0.0
 12
5386.051975151612
 22
5614.740762636665
 32
0.0
 13
5386.051975151612
 23
5614.740762636665
 33
0.0
  0
SOLID
  5
2AAC
330
18
100
AcDbEntity
  8
0
  6
ByBlock
 62
     0
 48
10.0
100
AcDbTrace
 10
5392.301985891561
 20
5727.240686337816
 30
0.0
 11
5379.80198589156
 21
5727.240686337816
 31
0.0
 12
5386.051985891559
 22
5764.740686337816
 32
0.0
 13
5386.051985891559
 23
5764.740686337816
 33
0.0
  0
SOLID
  5
2AAD
330
18
100
AcDbEntity
  8
0
  6
ByBlock
 62
     0
 48
10.0
100
AcDbTrace
 10
5242.301975151612
 20
5727.240698196948
 30
0.0
 11
5229.801975151611
 21
5727.240698196948
 31
0.0
 12
5236.051975151609
 22
5764.740698196948
 32
0.0
 13
5236.051975151609
 23
5764.740698196948
 33
0.0
  0
VIEWPORT
  5
298
330
15
100
AcDbEntity
 67
     1
  8
0
100
AcDbViewport
 10
291.7632241813602
 20
148.5
 30
0.0
 40
583.5264483627204
 41
297.0
 68
     1
 69
     1
 12
291.7632241813602
 22
148.5
 13
0.0
 23
0.0
 14
10.0
 24
10.0
 15
10.0
 25
10.0
 16
0.0
 26
0.0
 36
1.0
 17
0.0
 27
0.0
 37
0.0
 42
50.0
 43
0.0
 44
0.0
 45
297.0
 50
0.0
 51
0.0
 72
   100
 90
    32800
  1

281
     0
 71
     1
 74
     0
110
0.0
120
0.0
130
0.0
111
1.0
121
0.0
131
0.0
112
0.0
122
1.0
132
0.0
 79
     0
146
0.0
  0
ENDSEC
  0
SECTION
  2
OBJECTS
  0
DICTIONARY
  5
C
330
0
100
AcDbDictionary
281
     1
  3
ACAD_GROUP
350
D
  3
ACAD_LAYOUT
350
15FE
  3
ACAD_MLINESTYLE
350
1B
  3
ACAD_PLOTSETTINGS
350
15FF
  3
ACAD_PLOTSTYLENAME
350
15FC
  3
ACDBVARIABLEDICTIONARY
350
B2A
  3
DRAWINGVARIABLESDICT
350
1212
  0
DICTIONARY
  5
D
102
{ACAD_REACTORS
330
C
102
}
330
C
100
AcDbDictionary
281
     1
  3
*A1
350
1DE1
  3
*A2
350
2483
  3
*A3
350
2486
  3
*A4
350
263F
  0
DICTIONARY
  5
15FE
102
{ACAD_REACTORS
330
C
102
}
330
C
100
AcDbDictionary
281
     1
  3
Model
350
1600
  3
ﾚｲｱｳﾄ1
350
1601
  0
DICTIONARY
  5
1B
102
{ACAD_REACTORS
330
C
102
}
330
C
100
AcDbDictionary
281
     1
  3
STANDARD
350
1C
  0
DICTIONARY
  5
15FF
102
{ACAD_REACTORS
330
C
102
}
330
C
100
AcDbDictionary
281
     1
  0
ACDBDICTIONARYWDFLT
  5
15FC
102
{ACAD_REACTORS
330
C
102
}
330
C
100
AcDbDictionary
281
     1
  3
Normal
350
15FD
100
AcDbDictionaryWithDefault
340
15FD
  0
DICTIONARY
  5
B2A
102
{ACAD_REACTORS
330
C
102
}
330
C
100
AcDbDictionary
281
     1
  3
SORTENTS
350
B2B
  0
DICTIONARY
  5
1212
102
{ACAD_REACTORS
330
C
102
}
330
C
100
AcDbDictionary
281
     1
1001
DRAWINGVARIABLESXDATA
1000
POLARANG
1000
0.785398
1000
POLARMODE
1000
0
  0
GROUP
  5
1DE1
102
{ACAD_REACTORS
330
D
102
}
330
D
100
AcDbGroup
300

 70
     1
 71
     1
  0
GROUP
  5
2483
102
{ACAD_REACTORS
330
D
102
}
330
D
100
AcDbGroup
300

 70
     1
 71
     1
  0
GROUP
  5
2486
102
{ACAD_REACTORS
330
D
102
}
330
D
100
AcDbGroup
300

 70
     1
 71
     1
  0
GROUP
  5
263F
102
{ACAD_REACTORS
330
D
102
}
330
D
100
AcDbGroup
300

 70
     1
 71
     1
340
2639
340
263B
340
2636
  0
LAYOUT
  5
1600
102
{ACAD_REACTORS
330
15FE
102
}
330
15FE
100
AcDbPlotSettings
  1

  2
Canon LBP3800 LIPSLX
  4
A4
  6

 40
5.873749732971191
 41
5.873747825622558
 42
5.873748779296875
 43
5.873748779296875
 44
209.9733276367187
 45
296.9259948730469
 46
0.0
 47
0.0
 48
0.0
 49
0.0
140
0.0
141
0.0
142
1.0
143
1.0
 70
 11952
 72
     1
 73
     1
 74
     0
  7

 75
     0
147
1.0
148
-1462.06033014631
149
-2902.303253649923
100
AcDbLayout
  1
Model
 70
     1
 71
     0
 10
0.0
 20
0.0
 11
12.0
 21
9.0
 12
0.0
 22
0.0
 32
0.0
 14
0.0
 24
0.0
 34
0.0
 15
0.0
 25
0.0
 35
0.0
146
0.0
 13
0.0
 23
0.0
 33
0.0
 16
1.0
 26
0.0
 36
0.0
 17
0.0
 27
1.0
 37
0.0
 76
     0
330
18
  0
LAYOUT
  5
1601
102
{ACAD_REACTORS
330
15FE
102
}
330
15FE
100
AcDbPlotSettings
  1

  2
Canon LBP3800 LIPSLX
  4

  6

 40
0.0
 41
0.0
 42
0.0
 43
0.0
 44
0.0
 45
0.0
 46
0.0
 47
0.0
 48
0.0
 49
0.0
140
0.0
141
0.0
142
1.0
143
1.0
 70
   688
 72
     0
 73
     0
 74
     5
  7

 75
    16
147
1.0
148
0.0
149
0.0
100
AcDbLayout
  1
ﾚｲｱｳﾄ1
 70
     1
 71
     1
 10
0.0
 20
0.0
 11
420.0
 21
297.0
 12
0.0
 22
0.0
 32
0.0
 14
1.000000000000000E+20
 24
1.000000000000000E+20
 34
1.000000000000000E+20
 15
-1.000000000000000E+20
 25
-1.000000000000000E+20
 35
-1.000000000000000E+20
146
0.0
 13
0.0
 23
0.0
 33
0.0
 16
1.0
 26
0.0
 36
0.0
 17
0.0
 27
1.0
 37
0.0
 76
     0
330
15
331
298
  0
MLINESTYLE
  5
1C
102
{ACAD_REACTORS
330
1B
102
}
330
1B
100
AcDbMlineStyle
  2
STANDARD
 70
     0
  3

 62
   256
 51
90.0
 52
90.0
 71
     2
 49
0.5
 62
   256
  6
BYLAYER
 49
-0.5
 62
   256
  6
BYLAYER
  0
ACDBPLACEHOLDER
  5
15FD
102
{ACAD_REACTORS
330
15FC
102
}
330
15FC
  0
DICTIONARYVAR
  5
B2B
102
{ACAD_REACTORS
330
B2A
102
}
330
B2A
100
DictionaryVariables
280
     0
  1
96
  0
ENDSEC
  0
EOF
