  0
SECTION
  2
HEADER
  9
$ACADVER
  1
AC1015
  9
$ACADMAINTVER
 70
     6
  9
$DWGCODEPAGE
  3
ANSI_932
  9
$INSBASE
 10
0.0
 20
0.0
 30
0.0
  9
$EXTMIN
 10
710.0813698183028
 20
984.8549298695507
 30
0.0
  9
$EXTMAX
 10
8842.855825059224
 20
6379.668205501939
 30
0.0
  9
$LIMMIN
 10
0.0
 20
0.0
  9
$LIMMAX
 10
4455.0
 20
3150.0
  9
$ORTHOMODE
 70
     0
  9
$REGENMODE
 70
     1
  9
$FILLMODE
 70
     1
  9
$QTEXTMODE
 70
     0
  9
$MIRRTEXT
 70
     1
  9
$LTSCALE
 40
5.0
  9
$ATTMODE
 70
     1
  9
$TEXTSIZE
 40
2.5
  9
$TRACEWID
 40
1.0
  9
$TEXTSTYLE
  7
STANDARD
  9
$CLAYER
  8
OBJECT
  9
$CELTYPE
  6
BYLAYER
  9
$CECOLOR
 62
   256
  9
$CELTSCALE
 40
1.0
  9
$DISPSILH
 70
     0
  9
$DIMSCALE
 40
15.0
  9
$DIMASZ
 40
2.5
  9
$DIMEXO
 40
0.625
  9
$DIMDLI
 40
3.75
  9
$DIMRND
 40
0.0
  9
$DIMDLE
 40
0.0
  9
$DIMEXE
 40
1.25
  9
$DIMTP
 40
0.0
  9
$DIMTM
 40
0.0
  9
$DIMTXT
 40
2.5
  9
$DIMCEN
 40
2.5
  9
$DIMTSZ
 40
0.0
  9
$DIMTOL
 70
     0
  9
$DIMLIM
 70
     0
  9
$DIMTIH
 70
     0
  9
$DIMTOH
 70
     0
  9
$DIMSE1
 70
     0
  9
$DIMSE2
 70
     0
  9
$DIMTAD
 70
     1
  9
$DIMZIN
 70
     8
  9
$DIMBLK
  1

  9
$DIMASO
 70
     1
  9
$DIMSHO
 70
     1
  9
$DIMPOST
  1

  9
$DIMAPOST
  1

  9
$DIMALT
 70
     0
  9
$DIMALTD
 70
     4
  9
$DIMALTF
 40
0.0394
  9
$DIMLFAC
 40
1.0
  9
$DIMTOFL
 70
     1
  9
$DIMTVP
 40
0.0
  9
$DIMTIX
 70
     0
  9
$DIMSOXD
 70
     0
  9
$DIMSAH
 70
     0
  9
$DIMBLK1
  1

  9
$DIMBLK2
  1

  9
$DIMSTYLE
  2
STANDARD
  9
$DIMCLRD
 70
     0
  9
$DIMCLRE
 70
     0
  9
$DIMCLRT
 70
     0
  9
$DIMTFAC
 40
1.0
  9
$DIMGAP
 40
0.625
  9
$DIMJUST
 70
     0
  9
$DIMSD1
 70
     0
  9
$DIMSD2
 70
     0
  9
$DIMTOLJ
 70
     1
  9
$DIMTZIN
 70
     0
  9
$DIMALTZ
 70
     0
  9
$DIMALTTZ
 70
     0
  9
$DIMUPT
 70
     0
  9
$DIMDEC
 70
     4
  9
$DIMTDEC
 70
     4
  9
$DIMALTU
 70
     8
  9
$DIMALTTD
 70
     4
  9
$DIMTXSTY
  7
STANDARD
  9
$DIMAUNIT
 70
     0
  9
$DIMADEC
 70
     0
  9
$DIMALTRND
 40
0.0
  9
$DIMAZIN
 70
     0
  9
$DIMDSEP
 70
    46
  9
$DIMATFIT
 70
     3
  9
$DIMFRAC
 70
     0
  9
$DIMLDRBLK
  1

  9
$DIMLUNIT
 70
     6
  9
$DIMLWD
 70
    -2
  9
$DIMLWE
 70
    -2
  9
$DIMTMOVE
 70
     0
  9
$LUNITS
 70
     2
  9
$LUPREC
 70
     4
  9
$SKETCHINC
 40
1.0
  9
$FILLETRAD
 40
10.0
  9
$AUNITS
 70
     0
  9
$AUPREC
 70
     0
  9
$MENU
  1
acad
  9
$ELEVATION
 40
0.0
  9
$PELEVATION
 40
0.0
  9
$THICKNESS
 40
0.0
  9
$LIMCHECK
 70
     0
  9
$CHAMFERA
 40
10.0
  9
$CHAMFERB
 40
10.0
  9
$CHAMFERC
 40
20.0
  9
$CHAMFERD
 40
0.0
  9
$SKPOLY
 70
     0
  9
$TDCREATE
 40
2452111.335768865
  9
$TDUCREATE
 40
2452110.960768866
  9
$TDUPDATE
 40
2454547.692910694
  9
$TDUUPDATE
 40
2454547.317910694
  9
$TDINDWG
 40
0.8391509954
  9
$TDUSRTIMER
 40
0.8391509954
  9
$USRTIMER
 70
     1
  9
$ANGBASE
 50
0.0
  9
$ANGDIR
 70
     0
  9
$PDMODE
 70
     0
  9
$PDSIZE
 40
0.0
  9
$PLINEWID
 40
0.0
  9
$SPLFRAME
 70
     0
  9
$SPLINETYPE
 70
     6
  9
$SPLINESEGS
 70
     8
  9
$HANDSEED
  5
31B1
  9
$SURFTAB1
 70
     6
  9
$SURFTAB2
 70
     6
  9
$SURFTYPE
 70
     6
  9
$SURFU
 70
     6
  9
$SURFV
 70
     6
  9
$UCSBASE
  2

  9
$UCSNAME
  2

  9
$UCSORG
 10
0.0
 20
0.0
 30
0.0
  9
$UCSXDIR
 10
1.0
 20
0.0
 30
0.0
  9
$UCSYDIR
 10
0.0
 20
1.0
 30
0.0
  9
$UCSORTHOREF
  2

  9
$UCSORTHOVIEW
 70
     0
  9
$UCSORGTOP
 10
0.0
 20
0.0
 30
0.0
  9
$UCSORGBOTTOM
 10
0.0
 20
0.0
 30
0.0
  9
$UCSORGLEFT
 10
0.0
 20
0.0
 30
0.0
  9
$UCSORGRIGHT
 10
0.0
 20
0.0
 30
0.0
  9
$UCSORGFRONT
 10
0.0
 20
0.0
 30
0.0
  9
$UCSORGBACK
 10
0.0
 20
0.0
 30
0.0
  9
$PUCSBASE
  2

  9
$PUCSNAME
  2

  9
$PUCSORG
 10
0.0
 20
0.0
 30
0.0
  9
$PUCSXDIR
 10
1.0
 20
0.0
 30
0.0
  9
$PUCSYDIR
 10
0.0
 20
1.0
 30
0.0
  9
$PUCSORTHOREF
  2

  9
$PUCSORTHOVIEW
 70
     0
  9
$PUCSORGTOP
 10
0.0
 20
0.0
 30
0.0
  9
$PUCSORGBOTTOM
 10
0.0
 20
0.0
 30
0.0
  9
$PUCSORGLEFT
 10
0.0
 20
0.0
 30
0.0
  9
$PUCSORGRIGHT
 10
0.0
 20
0.0
 30
0.0
  9
$PUCSORGFRONT
 10
0.0
 20
0.0
 30
0.0
  9
$PUCSORGBACK
 10
0.0
 20
0.0
 30
0.0
  9
$USERI1
 70
     0
  9
$USERI2
 70
     0
  9
$USERI3
 70
     0
  9
$USERI4
 70
     0
  9
$USERI5
 70
     0
  9
$USERR1
 40
0.0
  9
$USERR2
 40
0.0
  9
$USERR3
 40
0.0
  9
$USERR4
 40
0.0
  9
$USERR5
 40
0.0
  9
$WORLDVIEW
 70
     1
  9
$SHADEDGE
 70
     3
  9
$SHADEDIF
 70
    70
  9
$TILEMODE
 70
     1
  9
$MAXACTVP
 70
    48
  9
$PINSBASE
 10
0.0
 20
0.0
 30
0.0
  9
$PLIMCHECK
 70
     0
  9
$PEXTMIN
 10
1.000000000000000E+20
 20
1.000000000000000E+20
 30
1.000000000000000E+20
  9
$PEXTMAX
 10
-1.000000000000000E+20
 20
-1.000000000000000E+20
 30
-1.000000000000000E+20
  9
$PLIMMIN
 10
0.0
 20
0.0
  9
$PLIMMAX
 10
420.0
 20
297.0
  9
$UNITMODE
 70
     0
  9
$VISRETAIN
 70
     1
  9
$PLINEGEN
 70
     0
  9
$PSLTSCALE
 70
     1
  9
$TREEDEPTH
 70
  3020
  9
$CMLSTYLE
  2
STANDARD
  9
$CMLJUST
 70
     0
  9
$CMLSCALE
 40
20.0
  9
$PROXYGRAPHICS
 70
     1
  9
$MEASUREMENT
 70
     1
  9
$CELWEIGHT
370
    -1
  9
$ENDCAPS
280
     0
  9
$JOINSTYLE
280
     0
  9
$LWDISPLAY
290
     0
  9
$INSUNITS
 70
     0
  9
$HYPERLINKBASE
  1

  9
$STYLESHEET
  1

  9
$XEDIT
290
     1
  9
$CEPSNTYPE
380
     0
  9
$PSTYLEMODE
290
     1
  9
$FINGERPRINTGUID
  2
{C9668057-E409-4CFD-A4F9-6C0551275C13}
  9
$VERSIONGUID
  2
{CB95A648-9FA5-40FC-ABD4-2B97A8D8C0BF}
  9
$EXTNAMES
290
     1
  9
$PSVPSCALE
 40
0.0
  9
$OLESTARTUP
290
     0
  0
ENDSEC
  0
SECTION
  2
CLASSES
  0
CLASS
  1
LWPOLYLINE
  2
AcDbPolyline
  3
AutoCAD 2000
 90
    32768
280
     0
281
     1
  0
CLASS
  1
DICTIONARYVAR
  2
AcDbDictionaryVar
  3
AutoCAD 2000
 90
        0
280
     0
281
     0
  0
CLASS
  1
HATCH
  2
AcDbHatch
  3
AutoCAD 2000
 90
    32768
280
     0
281
     1
  0
CLASS
  1
ACDBDICTIONARYWDFLT
  2
AcDbDictionaryWithDefault
  3
AutoCAD 2000
 90
        0
280
     0
281
     0
  0
CLASS
  1
ACDBPLACEHOLDER
  2
AcDbPlaceHolder
  3
AutoCAD 2000
 90
        0
280
     0
281
     0
  0
CLASS
  1
LAYOUT
  2
AcDbLayout
  3
AutoCAD 2000
 90
        0
280
     0
281
     0
  0
ENDSEC
  0
SECTION
  2
TABLES
  0
TABLE
  2
VPORT
  5
8
330
0
100
AcDbSymbolTable
 70
     2
  0
VPORT
  5
31B0
330
8
100
AcDbSymbolTableRecord
100
AcDbViewportTableRecord
  2
*Active
 70
     0
 10
0.0
 20
0.0
 11
1.0
 21
1.0
 12
6875.906551754408
 22
4884.307805336178
 13
0.0
 23
0.0
 14
10.0
 24
10.0
 15
10.0
 25
10.0
 16
0.0
 26
0.0
 36
1.0
 17
0.0
 27
0.0
 37
0.0
 40
3502.581061538047
 41
1.731203007518796
 42
50.0
 43
0.0
 44
0.0
 50
0.0
 51
0.0
 71
     0
 72
   100
 73
     1
 74
     1
 75
     0
 76
     0
 77
     0
 78
     0
281
     0
 65
     1
110
0.0
120
0.0
130
0.0
111
1.0
121
0.0
131
0.0
112
0.0
122
1.0
132
0.0
 79
     0
146
0.0
  0
ENDTAB
  0
TABLE
  2
LTYPE
  5
5
330
0
100
AcDbSymbolTable
 70
    46
  0
LTYPE
  5
12
330
5
100
AcDbSymbolTableRecord
100
AcDbLinetypeTableRecord
  2
BYBLOCK
 70
     0
  3

 72
    65
 73
     0
 40
0.0
  0
LTYPE
  5
13
330
5
100
AcDbSymbolTableRecord
100
AcDbLinetypeTableRecord
  2
BYLAYER
 70
     0
  3

 72
    65
 73
     0
 40
0.0
  0
LTYPE
  5
14
330
5
100
AcDbSymbolTableRecord
100
AcDbLinetypeTableRecord
  2
CONTINUOUS
 70
     0
  3
Solid line
 72
    65
 73
     0
 40
0.0
  0
LTYPE
  5
128
330
5
100
AcDbSymbolTableRecord
100
AcDbLinetypeTableRecord
  2
ACAD_ISO02W100
 70
     0
  3
ISO dash __ __ __ __ __ __ __ __ __ __ __ __ __
 72
    65
 73
     2
 40
15.0
 49
12.0
 74
     0
 49
-3.0
 74
     0
  0
LTYPE
  5
129
330
5
100
AcDbSymbolTableRecord
100
AcDbLinetypeTableRecord
  2
ACAD_ISO03W100
 70
     0
  3
ISO dash space __    __    __    __    __    __
 72
    65
 73
     2
 40
30.0
 49
12.0
 74
     0
 49
-18.0
 74
     0
  0
LTYPE
  5
12A
330
5
100
AcDbSymbolTableRecord
100
AcDbLinetypeTableRecord
  2
ACAD_ISO04W100
 70
     0
  3
ISO long-dash dot ____ . ____ . ____ . ____ . _
 72
    65
 73
     4
 40
30.5
 49
24.0
 74
     0
 49
-3.0
 74
     0
 49
0.5
 74
     0
 49
-3.0
 74
     0
  0
LTYPE
  5
12B
330
5
100
AcDbSymbolTableRecord
100
AcDbLinetypeTableRecord
  2
ACAD_ISO05W100
 70
     0
  3
ISO long-dash double-dot ____ .. ____ .. ____ .
 72
    65
 73
     8
 40
37.5
 49
24.0
 74
     0
 49
-3.0
 74
     0
 49
0.5
 74
     0
 49
-3.0
 74
     0
 49
0.5
 74
     0
 49
-3.0
 74
     0
 49
0.5
 74
     0
 49
-3.0
 74
     0
  0
LTYPE
  5
12C
330
5
100
AcDbSymbolTableRecord
100
AcDbLinetypeTableRecord
  2
ACAD_ISO06W100
 70
     0
  3
ISO long-dash triple-dot ____ ... ____ ... ____
 72
    65
 73
     8
 40
37.5
 49
24.0
 74
     0
 49
-3.0
 74
     0
 49
0.5
 74
     0
 49
-3.0
 74
     0
 49
0.5
 74
     0
 49
-3.0
 74
     0
 49
0.5
 74
     0
 49
-3.0
 74
     0
  0
LTYPE
  5
12D
330
5
100
AcDbSymbolTableRecord
100
AcDbLinetypeTableRecord
  2
ACAD_ISO07W100
 70
     0
  3
ISO dot . . . . . . . . . . . . . . . . . . . .
 72
    65
 73
     2
 40
3.5
 49
0.5
 74
     0
 49
-3.0
 74
     0
  0
LTYPE
  5
12E
330
5
100
AcDbSymbolTableRecord
100
AcDbLinetypeTableRecord
  2
ACAD_ISO08W100
 70
     0
  3
ISO long-dash short-dash ____ __ ____ __ ____ _
 72
    65
 73
     4
 40
36.0
 49
24.0
 74
     0
 49
-3.0
 74
     0
 49
6.0
 74
     0
 49
-3.0
 74
     0
  0
LTYPE
  5
12F
330
5
100
AcDbSymbolTableRecord
100
AcDbLinetypeTableRecord
  2
ACAD_ISO09W100
 70
     0
  3
ISO long-dash double-short-dash ____ __ __ ____
 72
    65
 73
     6
 40
45.0
 49
24.0
 74
     0
 49
-3.0
 74
     0
 49
6.0
 74
     0
 49
-3.0
 74
     0
 49
6.0
 74
     0
 49
-3.0
 74
     0
  0
LTYPE
  5
130
330
5
100
AcDbSymbolTableRecord
100
AcDbLinetypeTableRecord
  2
ACAD_ISO10W100
 70
     0
  3
ISO dash dot __ . __ . __ . __ . __ . __ . __ .
 72
    65
 73
     4
 40
18.5
 49
12.0
 74
     0
 49
-3.0
 74
     0
 49
0.5
 74
     0
 49
-3.0
 74
     0
  0
LTYPE
  5
131
330
5
100
AcDbSymbolTableRecord
100
AcDbLinetypeTableRecord
  2
ACAD_ISO11W100
 70
     0
  3
ISO double-dash dot __ __ . __ __ . __ __ . __ 
 72
    65
 73
     6
 40
33.5
 49
12.0
 74
     0
 49
-3.0
 74
     0
 49
12.0
 74
     0
 49
-3.0
 74
     0
 49
0.5
 74
     0
 49
-3.0
 74
     0
  0
LTYPE
  5
132
330
5
100
AcDbSymbolTableRecord
100
AcDbLinetypeTableRecord
  2
ACAD_ISO12W100
 70
     0
  3
ISO dash double-dot __ . . __ . . __ . . __ . .
 72
    65
 73
     6
 40
22.0
 49
12.0
 74
     0
 49
-3.0
 74
     0
 49
0.5
 74
     0
 49
-3.0
 74
     0
 49
0.5
 74
     0
 49
-3.0
 74
     0
  0
LTYPE
  5
133
330
5
100
AcDbSymbolTableRecord
100
AcDbLinetypeTableRecord
  2
ACAD_ISO13W100
 70
     0
  3
ISO double-dash double-dot __ __ . . __ __ . . 
 72
    65
 73
     8
 40
37.0
 49
12.0
 74
     0
 49
-3.0
 74
     0
 49
12.0
 74
     0
 49
-3.0
 74
     0
 49
0.5
 74
     0
 49
-3.0
 74
     0
 49
0.5
 74
     0
 49
-3.0
 74
     0
  0
LTYPE
  5
134
330
5
100
AcDbSymbolTableRecord
100
AcDbLinetypeTableRecord
  2
ACAD_ISO14W100
 70
     0
  3
ISO dash triple-dot __ . . . __ . . . __ . . . 
 72
    65
 73
     8
 40
25.5
 49
12.0
 74
     0
 49
-3.0
 74
     0
 49
0.5
 74
     0
 49
-3.0
 74
     0
 49
0.5
 74
     0
 49
-3.0
 74
     0
 49
0.5
 74
     0
 49
-3.0
 74
     0
  0
LTYPE
  5
135
330
5
100
AcDbSymbolTableRecord
100
AcDbLinetypeTableRecord
  2
ACAD_ISO15W100
 70
     0
  3
ISO double-dash triple-dot __ __ . . . __ __ . 
 72
    65
 73
    10
 40
40.49999999999999
 49
12.0
 74
     0
 49
-3.0
 74
     0
 49
12.0
 74
     0
 49
-3.0
 74
     0
 49
0.5
 74
     0
 49
-3.0
 74
     0
 49
0.5
 74
     0
 49
-3.0
 74
     0
 49
0.5
 74
     0
 49
-3.0
 74
     0
  0
LTYPE
  5
136
330
5
100
AcDbSymbolTableRecord
100
AcDbLinetypeTableRecord
  2
BATTING
 70
     0
  3
Batting SSSSSSSSSSSSSSSSSSSSSSSSSSSSSSSSSSSSSSS
 72
    65
 73
     4
 40
10.16253999999999
 49
0.00254
 74
     0
 49
-2.54
 74
     4
 75
   134
340
127
 46
2.54
 50
0.0
 44
-2.54
 45
0.0
 49
-5.08
 74
     4
 75
   134
340
127
 46
2.54
 50
180.0
 44
2.54
 45
0.0
 49
-2.54
 74
     0
  0
LTYPE
  5
137
330
5
100
AcDbSymbolTableRecord
100
AcDbLinetypeTableRecord
  2
BORDER
 70
     0
  3
Border __ __ . __ __ . __ __ . __ __ . __ __ .
 72
    65
 73
     6
 40
44.45
 49
12.7
 74
     0
 49
-6.349999999999999
 74
     0
 49
12.7
 74
     0
 49
-6.349999999999999
 74
     0
 49
0.0
 74
     0
 49
-6.349999999999999
 74
     0
  0
LTYPE
  5
138
330
5
100
AcDbSymbolTableRecord
100
AcDbLinetypeTableRecord
  2
BORDER2
 70
     0
  3
Border (.5x) __.__.__.__.__.__.__.__.__.__.__.
 72
    65
 73
     6
 40
22.225
 49
6.349999999999999
 74
     0
 49
-3.174999999999999
 74
     0
 49
6.349999999999999
 74
     0
 49
-3.174999999999999
 74
     0
 49
0.0
 74
     0
 49
-3.174999999999999
 74
     0
  0
LTYPE
  5
139
330
5
100
AcDbSymbolTableRecord
100
AcDbLinetypeTableRecord
  2
BORDERX2
 70
     0
  3
Border (2x) ____  ____  .  ____  ____  .  ___
 72
    65
 73
     6
 40
88.9
 49
25.4
 74
     0
 49
-12.7
 74
     0
 49
25.4
 74
     0
 49
-12.7
 74
     0
 49
0.0
 74
     0
 49
-12.7
 74
     0
  0
LTYPE
  5
13A
330
5
100
AcDbSymbolTableRecord
100
AcDbLinetypeTableRecord
  2
CENTER
 70
     0
  3
Center ____ _ ____ _ ____ _ ____ _ ____ _ ____
 72
    65
 73
     4
 40
50.8
 49
31.75
 74
     0
 49
-6.349999999999999
 74
     0
 49
6.349999999999999
 74
     0
 49
-6.349999999999999
 74
     0
  0
LTYPE
  5
13B
330
5
100
AcDbSymbolTableRecord
100
AcDbLinetypeTableRecord
  2
CENTER2
 70
     0
  3
Center (.5x) ___ _ ___ _ ___ _ ___ _ ___ _ ___
 72
    65
 73
     4
 40
28.57499999999999
 49
19.05
 74
     0
 49
-3.174999999999999
 74
     0
 49
3.174999999999999
 74
     0
 49
-3.174999999999999
 74
     0
  0
LTYPE
  5
13C
330
5
100
AcDbSymbolTableRecord
100
AcDbLinetypeTableRecord
  2
CENTERX2
 70
     0
  3
Center (2x) ________  __  ________  __  _____
 72
    65
 73
     4
 40
101.6
 49
63.5
 74
     0
 49
-12.7
 74
     0
 49
12.7
 74
     0
 49
-12.7
 74
     0
  0
LTYPE
  5
13D
330
5
100
AcDbSymbolTableRecord
100
AcDbLinetypeTableRecord
  2
DASHDOT
 70
     0
  3
Dash dot __ . __ . __ . __ . __ . __ . __ . __
 72
    65
 73
     4
 40
25.4
 49
12.7
 74
     0
 49
-6.349999999999999
 74
     0
 49
0.0
 74
     0
 49
-6.349999999999999
 74
     0
  0
LTYPE
  5
13E
330
5
100
AcDbSymbolTableRecord
100
AcDbLinetypeTableRecord
  2
DASHDOT2
 70
     0
  3
Dash dot (.5x) _._._._._._._._._._._._._._._.
 72
    65
 73
     4
 40
12.7
 49
6.349999999999999
 74
     0
 49
-3.174999999999999
 74
     0
 49
0.0
 74
     0
 49
-3.174999999999999
 74
     0
  0
LTYPE
  5
13F
330
5
100
AcDbSymbolTableRecord
100
AcDbLinetypeTableRecord
  2
DASHDOTX2
 70
     0
  3
Dash dot (2x) ____  .  ____  .  ____  .  ___
 72
    65
 73
     4
 40
50.8
 49
25.4
 74
     0
 49
-12.7
 74
     0
 49
0.0
 74
     0
 49
-12.7
 74
     0
  0
LTYPE
  5
140
330
5
100
AcDbSymbolTableRecord
100
AcDbLinetypeTableRecord
  2
DASHED
 70
     0
  3
Dashed __ __ __ __ __ __ __ __ __ __ __ __ __ _
 72
    65
 73
     2
 40
19.04999999999999
 49
12.7
 74
     0
 49
-6.349999999999999
 74
     0
  0
LTYPE
  5
141
330
5
100
AcDbSymbolTableRecord
100
AcDbLinetypeTableRecord
  2
DASHED2
 70
     0
  3
Dashed (.5x) _ _ _ _ _ _ _ _ _ _ _ _ _ _ _ _ _
 72
    65
 73
     2
 40
9.524999999999998
 49
6.349999999999999
 74
     0
 49
-3.174999999999999
 74
     0
  0
LTYPE
  5
142
330
5
100
AcDbSymbolTableRecord
100
AcDbLinetypeTableRecord
  2
DASHEDX2
 70
     0
  3
Dashed (2x) ____  ____  ____  ____  ____  ___
 72
    65
 73
     2
 40
38.09999999999999
 49
25.4
 74
     0
 49
-12.7
 74
     0
  0
LTYPE
  5
143
330
5
100
AcDbSymbolTableRecord
100
AcDbLinetypeTableRecord
  2
DIVIDE
 70
     0
  3
Divide ____ . . ____ . . ____ . . ____ . . ____
 72
    65
 73
     6
 40
31.74999999999999
 49
12.7
 74
     0
 49
-6.349999999999999
 74
     0
 49
0.0
 74
     0
 49
-6.349999999999999
 74
     0
 49
0.0
 74
     0
 49
-6.349999999999999
 74
     0
  0
LTYPE
  5
144
330
5
100
AcDbSymbolTableRecord
100
AcDbLinetypeTableRecord
  2
DIVIDE2
 70
     0
  3
Divide (.5x) __..__..__..__..__..__..__..__.._
 72
    65
 73
     6
 40
15.87499999999999
 49
6.349999999999999
 74
     0
 49
-3.174999999999999
 74
     0
 49
0.0
 74
     0
 49
-3.174999999999999
 74
     0
 49
0.0
 74
     0
 49
-3.174999999999999
 74
     0
  0
LTYPE
  5
145
330
5
100
AcDbSymbolTableRecord
100
AcDbLinetypeTableRecord
  2
DIVIDEX2
 70
     0
  3
Divide (2x) ________  .  .  ________  .  .  _
 72
    65
 73
     6
 40
63.49999999999999
 49
25.4
 74
     0
 49
-12.7
 74
     0
 49
0.0
 74
     0
 49
-12.7
 74
     0
 49
0.0
 74
     0
 49
-12.7
 74
     0
  0
LTYPE
  5
146
330
5
100
AcDbSymbolTableRecord
100
AcDbLinetypeTableRecord
  2
DOT
 70
     0
  3
Dot . . . . . . . . . . . . . . . . . . . . . .
 72
    65
 73
     2
 40
6.349999999999999
 49
0.0
 74
     0
 49
-6.349999999999999
 74
     0
  0
LTYPE
  5
147
330
5
100
AcDbSymbolTableRecord
100
AcDbLinetypeTableRecord
  2
DOT2
 70
     0
  3
Dot (.5x) .....................................
 72
    65
 73
     2
 40
3.174999999999999
 49
0.0
 74
     0
 49
-3.174999999999999
 74
     0
  0
LTYPE
  5
148
330
5
100
AcDbSymbolTableRecord
100
AcDbLinetypeTableRecord
  2
DOTX2
 70
     0
  3
Dot (2x) .  .  .  .  .  .  .  .  .  .  .  .  . 
 72
    65
 73
     2
 40
12.7
 49
0.0
 74
     0
 49
-12.7
 74
     0
  0
LTYPE
  5
149
330
5
100
AcDbSymbolTableRecord
100
AcDbLinetypeTableRecord
  2
FENCELINE1
 70
     0
  3
Fenceline circle ----0-----0----0-----0----0---
 72
    65
 73
     4
 40
36.82999999999999
 49
6.349999999999999
 74
     0
 49
-2.54
 74
     4
 75
   133
340
127
 46
2.54
 50
0.0
 44
-2.54
 45
0.0
 49
-2.54
 74
     0
 49
25.4
 74
     0
  0
LTYPE
  5
14A
330
5
100
AcDbSymbolTableRecord
100
AcDbLinetypeTableRecord
  2
FENCELINE2
 70
     0
  3
Fenceline square ----[]-----[]----[]-----[]----
 72
    65
 73
     4
 40
36.82999999999999
 49
6.349999999999999
 74
     0
 49
-2.54
 74
     4
 75
   132
340
127
 46
2.54
 50
0.0
 44
-2.54
 45
0.0
 49
-2.54
 74
     0
 49
25.4
 74
     0
  0
LTYPE
  5
14B
330
5
100
AcDbSymbolTableRecord
100
AcDbLinetypeTableRecord
  2
GAS_LINE
 70
     0
  3
Gas line ----GAS----GAS----GAS----GAS----GAS---
 72
    65
 73
     3
 40
24.13
 49
12.7
 74
     0
 49
-5.08
 74
     2
 75
     0
340
F
 46
2.54
 50
0.0
 44
-2.54
 45
-1.27
  9
GAS
 49
-6.349999999999999
 74
     0
  0
LTYPE
  5
14C
330
5
100
AcDbSymbolTableRecord
100
AcDbLinetypeTableRecord
  2
HIDDEN
 70
     0
  3
Hidden __ __ __ __ __ __ __ __ __ __ __ __ __ _
 72
    65
 73
     2
 40
9.524999999999998
 49
6.349999999999999
 74
     0
 49
-3.174999999999999
 74
     0
  0
LTYPE
  5
14D
330
5
100
AcDbSymbolTableRecord
100
AcDbLinetypeTableRecord
  2
HIDDEN2
 70
     0
  3
Hidden (.5x) _ _ _ _ _ _ _ _ _ _ _ _ _ _ _ _ _
 72
    65
 73
     2
 40
4.762499999999999
 49
3.174999999999999
 74
     0
 49
-1.587499999999999
 74
     0
  0
LTYPE
  5
14E
330
5
100
AcDbSymbolTableRecord
100
AcDbLinetypeTableRecord
  2
HIDDENX2
 70
     0
  3
Hidden (2x) ____ ____ ____ ____ ____ ____ ____
 72
    65
 73
     2
 40
19.04999999999999
 49
12.7
 74
     0
 49
-6.349999999999999
 74
     0
  0
LTYPE
  5
14F
330
5
100
AcDbSymbolTableRecord
100
AcDbLinetypeTableRecord
  2
HOT_WATER_SUPPLY
 70
     0
  3
Hot water supply ---- HW ---- HW ---- HW ----
 72
    65
 73
     3
 40
22.86
 49
12.7
 74
     0
 49
-5.08
 74
     2
 75
     0
340
F
 46
2.54
 50
0.0
 44
-2.54
 45
-1.27
  9
HW
 49
-5.08
 74
     0
  0
LTYPE
  5
150
330
5
100
AcDbSymbolTableRecord
100
AcDbLinetypeTableRecord
  2
PHANTOM
 70
     0
  3
Phantom ______  __  __  ______  __  __  ______
 72
    65
 73
     6
 40
63.5
 49
31.75
 74
     0
 49
-6.349999999999999
 74
     0
 49
6.349999999999999
 74
     0
 49
-6.349999999999999
 74
     0
 49
6.349999999999999
 74
     0
 49
-6.349999999999999
 74
     0
  0
LTYPE
  5
151
330
5
100
AcDbSymbolTableRecord
100
AcDbLinetypeTableRecord
  2
PHANTOM2
 70
     0
  3
Phantom (.5x) ___ _ _ ___ _ _ ___ _ _ ___ _ _
 72
    65
 73
     6
 40
31.75
 49
15.875
 74
     0
 49
-3.174999999999999
 74
     0
 49
3.174999999999999
 74
     0
 49
-3.174999999999999
 74
     0
 49
3.174999999999999
 74
     0
 49
-3.174999999999999
 74
     0
  0
LTYPE
  5
152
330
5
100
AcDbSymbolTableRecord
100
AcDbLinetypeTableRecord
  2
PHANTOMX2
 70
     0
  3
Phantom (2x) ____________    ____    ____   _
 72
    65
 73
     6
 40
127.0
 49
63.5
 74
     0
 49
-12.7
 74
     0
 49
12.7
 74
     0
 49
-12.7
 74
     0
 49
12.7
 74
     0
 49
-12.7
 74
     0
  0
LTYPE
  5
153
330
5
100
AcDbSymbolTableRecord
100
AcDbLinetypeTableRecord
  2
TRACKS
 70
     0
  3
Tracks -|-|-|-|-|-|-|-|-|-|-|-|-|-|-|-|-|-|-|-|
 72
    65
 73
     2
 40
7.62
 49
3.81
 74
     4
 75
   130
340
127
 46
6.349999999999999
 50
0.0
 44
0.0
 45
0.0
 49
3.81
 74
     0
  0
LTYPE
  5
154
330
5
100
AcDbSymbolTableRecord
100
AcDbLinetypeTableRecord
  2
ZIGZAG
 70
     0
  3
Zig zag /\/\/\/\/\/\/\/\/\/\/\/\/\/\/\/\/\/\/\/
 72
    65
 73
     4
 40
20.32254
 49
0.00254
 74
     0
 49
-5.08
 74
     4
 75
   131
340
127
 46
5.08
 50
0.0
 44
-5.08
 45
0.0
 49
-10.16
 74
     4
 75
   131
340
127
 46
5.08
 50
180.0
 44
5.08
 45
0.0
 49
-5.08
 74
     0
  0
ENDTAB
  0
TABLE
  2
LAYER
  5
2
330
0
100
AcDbSymbolTable
 70
     9
  0
LAYER
  5
E
330
2
100
AcDbSymbolTableRecord
100
AcDbLayerTableRecord
  2
0
 70
     0
 62
     7
  6
CONTINUOUS
370
    -3
390
15FD
  0
LAYER
  5
20
330
2
100
AcDbSymbolTableRecord
100
AcDbLayerTableRecord
  2
DEFPOINTS
 70
     0
 62
     7
  6
CONTINUOUS
290
     0
370
    -3
390
15FD
  0
LAYER
  5
21
330
2
100
AcDbSymbolTableRecord
100
AcDbLayerTableRecord
  2
OBJECT
 70
     0
 62
     7
  6
CONTINUOUS
370
    -3
390
15FD
  0
LAYER
  5
155
330
2
100
AcDbSymbolTableRecord
100
AcDbLayerTableRecord
  2
上書線
 70
     0
 62
     7
  6
CONTINUOUS
370
    -3
390
15FD
  0
LAYER
  5
156
330
2
100
AcDbSymbolTableRecord
100
AcDbLayerTableRecord
  2
基準線
 70
     0
 62
    -1
  6
CONTINUOUS
370
    -3
390
15FD
  0
LAYER
  5
157
330
2
100
AcDbSymbolTableRecord
100
AcDbLayerTableRecord
  2
点線
 70
     0
 62
     5
  6
HIDDEN
370
    -3
390
15FD
  0
LAYER
  5
158
330
2
100
AcDbSymbolTableRecord
100
AcDbLayerTableRecord
  2
寸法線
 70
     0
 62
     2
  6
CONTINUOUS
370
    -3
390
15FD
  0
LAYER
  5
19D7
330
2
100
AcDbSymbolTableRecord
100
AcDbLayerTableRecord
  2
上線
 70
     0
 62
     7
  6
CONTINUOUS
370
    -3
390
15FD
  0
LAYER
  5
2F15
330
2
100
AcDbSymbolTableRecord
100
AcDbLayerTableRecord
  2
WUWAGAKI
 70
     0
 62
     7
  6
CONTINUOUS
370
    -3
390
15FD
  0
ENDTAB
  0
TABLE
  2
STYLE
  5
3
330
0
100
AcDbSymbolTable
 70
     3
  0
STYLE
  5
F
330
3
100
AcDbSymbolTableRecord
100
AcDbTextStyleTableRecord
  2
STANDARD
 70
     0
 40
0.0
 41
1.0
 50
0.0
 71
     0
 42
2.5
  3
MS PMincho.ttf
  4

1001
ACAD
1000
MS PMincho
1071
    32786
  0
STYLE
  5
22
330
3
100
AcDbSymbolTableRecord
100
AcDbTextStyleTableRecord
  2
ADESK1
 70
     0
 40
0.0
 41
1.0
 50
0.0
 71
     0
 42
5.0
  3
romans
  4
bigfont
  0
STYLE
  5
127
330
3
100
AcDbSymbolTableRecord
100
AcDbTextStyleTableRecord
  2

 70
     1
 40
0.0
 41
1.0
 50
0.0
 71
     0
 42
2.5
  3
ltypeshp.shx
  4

  0
ENDTAB
  0
TABLE
  2
VIEW
  5
6
330
0
100
AcDbSymbolTable
 70
     0
  0
ENDTAB
  0
TABLE
  2
UCS
  5
7
330
0
100
AcDbSymbolTable
 70
     0
  0
ENDTAB
  0
TABLE
  2
APPID
  5
9
330
0
100
AcDbSymbolTable
 70
     2
  0
APPID
  5
10
330
9
100
AcDbSymbolTableRecord
100
AcDbRegAppTableRecord
  2
ACAD
 70
     0
  0
APPID
  5
1213
330
9
100
AcDbSymbolTableRecord
100
AcDbRegAppTableRecord
  2
DRAWINGVARIABLESXDATA
 70
     0
  0
ENDTAB
  0
TABLE
  2
DIMSTYLE
  5
A
330
0
100
AcDbSymbolTable
 70
     2
100
AcDbDimStyleTable
 71
     1
340
1D
  0
DIMSTYLE
105
1D
330
A
100
AcDbSymbolTableRecord
100
AcDbDimStyleTableRecord
  2
STANDARD
 70
     0
340
F
  0
DIMSTYLE
105
23
330
A
100
AcDbSymbolTableRecord
100
AcDbDimStyleTableRecord
  2
JIS
 70
     0
 41
2.5
 42
1.0
 43
7.0
 44
1.0
 73
     0
 74
     0
 77
     1
 78
     8
140
2.5
141
0.0
143
0.0394
147
0.0
172
     1
174
     1
175
     1
340
F
  0
ENDTAB
  0
TABLE
  2
BLOCK_RECORD
  5
1
330
0
100
AcDbSymbolTable
 70
     1
  0
BLOCK_RECORD
  5
18
330
1
100
AcDbSymbolTableRecord
100
AcDbBlockTableRecord
  2
*MODEL_SPACE
340
1600
  0
BLOCK_RECORD
  5
15
330
1
100
AcDbSymbolTableRecord
100
AcDbBlockTableRecord
  2
*PAPER_SPACE
340
1601
  0
BLOCK_RECORD
  5
24
330
1
100
AcDbSymbolTableRecord
100
AcDbBlockTableRecord
  2
JIS_A4L
340
0
  0
ENDTAB
  0
ENDSEC
  0
SECTION
  2
BLOCKS
  0
BLOCK
  5
19
330
18
100
AcDbEntity
  8
0
100
AcDbBlockBegin
  2
*MODEL_SPACE
 70
     2
 10
0.0
 20
0.0
 30
0.0
  3
*MODEL_SPACE
  1

  0
ENDBLK
  5
1A
330
18
100
AcDbEntity
  8
0
100
AcDbBlockEnd
  0
BLOCK
  5
16
330
15
100
AcDbEntity
 67
     1
  8
0
100
AcDbBlockBegin
  2
*PAPER_SPACE
 70
     0
 10
0.0
 20
0.0
 30
0.0
  3
*PAPER_SPACE
  1

  0
ENDBLK
  5
17
330
15
100
AcDbEntity
 67
     1
  8
0
100
AcDbBlockEnd
  0
BLOCK
  5
A1
330
24
100
AcDbEntity
  8
0
100
AcDbBlockBegin
  2
JIS_A4L
 70
     2
 10
0.0
 20
0.0
 30
0.0
  3
JIS_A4L
  1

  0
LINE
  5
25
330
24
100
AcDbEntity
  8
0
100
AcDbLine
 10
0.0
 20
0.0
 30
0.0
 11
0.0
 21
10.0
 31
0.0
  0
LINE
  5
26
330
24
100
AcDbEntity
  8
0
100
AcDbLine
 10
0.0
 20
210.0
 30
0.0
 11
25.0
 21
210.0
 31
0.0
  0
LINE
  5
27
330
24
100
AcDbEntity
  8
0
100
AcDbLine
 10
297.0
 20
210.0
 30
0.0
 11
297.0
 21
200.0
 31
0.0
  0
LINE
  5
28
330
24
100
AcDbEntity
  8
0
100
AcDbLine
 10
297.0
 20
0.0
 30
0.0
 11
287.0
 21
0.0
 31
0.0
  0
LINE
  5
29
330
24
100
AcDbEntity
  8
0
100
AcDbLine
 10
25.0
 20
10.0
 30
0.0
 11
25.0
 21
200.0
 31
0.0
  0
LINE
  5
2A
330
24
100
AcDbEntity
  8
0
100
AcDbLine
 10
287.0
 20
10.0
 30
0.0
 11
25.0
 21
10.0
 31
0.0
  0
LINE
  5
2B
330
24
100
AcDbEntity
  8
0
100
AcDbLine
 10
287.0
 20
200.0
 30
0.0
 11
287.0
 21
10.0
 31
0.0
  0
LINE
  5
2C
330
24
100
AcDbEntity
  8
0
100
AcDbLine
 10
25.0
 20
200.0
 30
0.0
 11
287.0
 21
200.0
 31
0.0
  0
LINE
  5
2D
330
24
100
AcDbEntity
  8
0
100
AcDbLine
 10
0.0
 20
200.0
 30
0.0
 11
0.0
 21
210.0
 31
0.0
  0
LINE
  5
2E
330
24
100
AcDbEntity
  8
0
100
AcDbLine
 10
25.0
 20
0.0
 30
0.0
 11
0.0
 21
0.0
 31
0.0
  0
LINE
  5
2F
330
24
100
AcDbEntity
  8
0
100
AcDbLine
 10
297.0
 20
10.0
 30
0.0
 11
297.0
 21
0.0
 31
0.0
  0
LINE
  5
30
330
24
100
AcDbEntity
  8
0
100
AcDbLine
 10
287.0
 20
210.0
 30
0.0
 11
297.0
 21
210.0
 31
0.0
  0
ATTDEF
  5
31
330
24
100
AcDbEntity
  8
0
 62
     0
100
AcDbText
 10
19.0
 20
10.0
 30
0.0
 40
3.0
  1

 50
90.0
  7
ADESK1
100
AcDbAttributeDefinition
  3

  2
USER
 70
     8
  0
ATTDEF
  5
32
330
24
100
AcDbEntity
  8
0
 62
     0
100
AcDbText
 10
19.0
 20
70.0
 30
0.0
 40
3.0
  1

 50
90.0
  7
ADESK1
100
AcDbAttributeDefinition
  3

  2
REVDATE
 70
     8
  0
ATTDEF
  5
33
330
24
100
AcDbEntity
  8
0
 62
     0
100
AcDbText
 10
19.0
 20
118.0
 30
0.0
 40
3.0
  1

 50
90.0
  7
ADESK1
100
AcDbAttributeDefinition
  3

  2
FNAME
 70
     8
  0
LINE
  5
34
330
24
100
AcDbEntity
  8
OBJECT
100
AcDbLine
 10
130.0
 20
16.0
 30
0.0
 11
25.0
 21
16.0
 31
0.0
  0
LINE
  5
35
330
24
100
AcDbEntity
  8
OBJECT
100
AcDbLine
 10
130.0
 20
22.0
 30
0.0
 11
25.0
 21
22.0
 31
0.0
  0
LINE
  5
36
330
24
100
AcDbEntity
  8
OBJECT
100
AcDbLine
 10
130.0
 20
28.0
 30
0.0
 11
25.0
 21
28.0
 31
0.0
  0
LINE
  5
37
330
24
100
AcDbEntity
  8
OBJECT
100
AcDbLine
 10
130.0
 20
34.0
 30
0.0
 11
25.0
 21
34.0
 31
0.0
  0
LINE
  5
38
330
24
100
AcDbEntity
  8
OBJECT
100
AcDbLine
 10
130.0
 20
40.0
 30
0.0
 11
25.0
 21
40.0
 31
0.0
  0
LINE
  5
39
330
24
100
AcDbEntity
  8
OBJECT
100
AcDbLine
 10
28.0
 20
11.53589799999999
 30
0.0
 11
30.0
 21
15.0
 31
0.0
  0
LINE
  5
3A
330
24
100
AcDbEntity
  8
OBJECT
100
AcDbLine
 10
32.0
 20
11.53589799999999
 30
0.0
 11
30.0
 21
15.0
 31
0.0
  0
LINE
  5
3B
330
24
100
AcDbEntity
  8
OBJECT
100
AcDbLine
 10
35.0
 20
10.0
 30
0.0
 11
35.0
 21
40.0
 31
0.0
  0
LINE
  5
3C
330
24
100
AcDbEntity
  8
OBJECT
100
AcDbLine
 10
50.0
 20
10.0
 30
0.0
 11
50.0
 21
40.0
 31
0.0
  0
LINE
  5
3D
330
24
100
AcDbEntity
  8
OBJECT
100
AcDbLine
 10
80.0
 20
10.0
 30
0.0
 11
80.0
 21
40.0
 31
0.0
  0
LINE
  5
3E
330
24
100
AcDbEntity
  8
OBJECT
100
AcDbLine
 10
28.0
 20
11.53589799999999
 30
0.0
 11
32.0
 21
11.53589799999999
 31
0.0
  0
LINE
  5
3F
330
24
100
AcDbEntity
  8
OBJECT
100
AcDbLine
 10
39.5
 20
13.0
 30
0.0
 11
40.49999999999999
 21
13.0
 31
0.0
  0
LINE
  5
40
330
24
100
AcDbEntity
  8
OBJECT
100
AcDbLine
 10
44.5
 20
13.0
 30
0.0
 11
45.49999999999999
 21
13.0
 31
0.0
  0
LINE
  5
41
330
24
100
AcDbEntity
  8
OBJECT
100
AcDbLine
 10
32.0
 20
17.535898
 30
0.0
 11
30.0
 21
20.99999999999999
 31
0.0
  0
LINE
  5
42
330
24
100
AcDbEntity
  8
OBJECT
100
AcDbLine
 10
28.0
 20
17.535898
 30
0.0
 11
32.0
 21
17.535898
 31
0.0
  0
LINE
  5
43
330
24
100
AcDbEntity
  8
OBJECT
100
AcDbLine
 10
28.0
 20
17.535898
 30
0.0
 11
30.0
 21
20.99999999999999
 31
0.0
  0
LINE
  5
44
330
24
100
AcDbEntity
  8
OBJECT
100
AcDbLine
 10
32.0
 20
23.53589799999999
 30
0.0
 11
30.0
 21
26.99999999999999
 31
0.0
  0
LINE
  5
45
330
24
100
AcDbEntity
  8
OBJECT
100
AcDbLine
 10
28.0
 20
23.53589799999999
 30
0.0
 11
32.0
 21
23.53589799999999
 31
0.0
  0
LINE
  5
46
330
24
100
AcDbEntity
  8
OBJECT
100
AcDbLine
 10
28.0
 20
23.53589799999999
 30
0.0
 11
30.0
 21
26.99999999999999
 31
0.0
  0
LINE
  5
47
330
24
100
AcDbEntity
  8
OBJECT
100
AcDbLine
 10
28.0
 20
35.53589799999999
 30
0.0
 11
30.0
 21
39.0
 31
0.0
  0
LINE
  5
48
330
24
100
AcDbEntity
  8
OBJECT
100
AcDbLine
 10
32.0
 20
35.53589799999999
 30
0.0
 11
30.0
 21
39.0
 31
0.0
  0
LINE
  5
49
330
24
100
AcDbEntity
  8
OBJECT
100
AcDbLine
 10
28.0
 20
35.53589799999999
 30
0.0
 11
32.0
 21
35.53589799999999
 31
0.0
  0
LINE
  5
4A
330
24
100
AcDbEntity
  8
OBJECT
100
AcDbLine
 10
32.0
 20
29.53589799999999
 30
0.0
 11
30.0
 21
33.0
 31
0.0
  0
LINE
  5
4B
330
24
100
AcDbEntity
  8
OBJECT
100
AcDbLine
 10
28.0
 20
29.53589799999999
 30
0.0
 11
32.0
 21
29.53589799999999
 31
0.0
  0
LINE
  5
4C
330
24
100
AcDbEntity
  8
OBJECT
100
AcDbLine
 10
28.0
 20
29.53589799999999
 30
0.0
 11
30.0
 21
33.0
 31
0.0
  0
LINE
  5
4D
330
24
100
AcDbEntity
  8
OBJECT
100
AcDbLine
 10
39.5
 20
19.0
 30
0.0
 11
40.49999999999999
 21
19.0
 31
0.0
  0
LINE
  5
4E
330
24
100
AcDbEntity
  8
OBJECT
100
AcDbLine
 10
44.5
 20
19.0
 30
0.0
 11
45.49999999999999
 21
19.0
 31
0.0
  0
LINE
  5
4F
330
24
100
AcDbEntity
  8
OBJECT
100
AcDbLine
 10
39.5
 20
25.0
 30
0.0
 11
40.49999999999999
 21
25.0
 31
0.0
  0
LINE
  5
50
330
24
100
AcDbEntity
  8
OBJECT
100
AcDbLine
 10
44.5
 20
25.0
 30
0.0
 11
45.49999999999999
 21
25.0
 31
0.0
  0
LINE
  5
51
330
24
100
AcDbEntity
  8
OBJECT
100
AcDbLine
 10
39.5
 20
31.0
 30
0.0
 11
40.49999999999999
 21
31.0
 31
0.0
  0
LINE
  5
52
330
24
100
AcDbEntity
  8
OBJECT
100
AcDbLine
 10
39.5
 20
37.0
 30
0.0
 11
40.49999999999999
 21
37.0
 31
0.0
  0
LINE
  5
53
330
24
100
AcDbEntity
  8
OBJECT
100
AcDbLine
 10
44.5
 20
31.0
 30
0.0
 11
45.49999999999999
 21
31.0
 31
0.0
  0
LINE
  5
54
330
24
100
AcDbEntity
  8
OBJECT
100
AcDbLine
 10
44.5
 20
37.0
 30
0.0
 11
45.49999999999999
 21
37.0
 31
0.0
  0
LINE
  5
55
330
24
100
AcDbEntity
  8
OBJECT
100
AcDbLine
 10
120.0
 20
10.0
 30
0.0
 11
120.0
 21
40.0
 31
0.0
  0
LINE
  5
56
330
24
100
AcDbEntity
  8
OBJECT
100
AcDbLine
 10
130.0
 20
40.0
 30
0.0
 11
130.0
 21
10.0
 31
0.0
  0
LINE
  5
57
330
24
100
AcDbEntity
  8
0
100
AcDbLine
 10
156.0
 20
10.0
 30
0.0
 11
156.0
 21
0.0
 31
0.0
  0
LINE
  5
58
330
24
100
AcDbEntity
  8
0
100
AcDbLine
 10
156.0
 20
200.0
 30
0.0
 11
156.0
 21
210.0
 31
0.0
  0
LINE
  5
59
330
24
100
AcDbEntity
  8
0
100
AcDbLine
 10
287.0
 20
105.0
 30
0.0
 11
297.0
 21
105.0
 31
0.0
  0
LINE
  5
5A
330
24
100
AcDbEntity
  8
0
100
AcDbLine
 10
25.0
 20
105.0
 30
0.0
 11
0.0
 21
105.0
 31
0.0
  0
TEXT
  5
5B
330
24
100
AcDbEntity
  8
0
100
AcDbText
 10
1.0
 20
1.0
 30
0.0
 40
3.0
  1
この図枠はサンプルです。社内の規格やプロッタの出力範囲に合わせて適当に変更してご利用ください。
  7
ADESK1
100
AcDbText
  0
LINE
  5
5C
330
24
100
AcDbEntity
  8
0
100
AcDbLine
 10
25.0
 20
152.5
 30
0.0
 11
20.0
 21
152.5
 31
0.0
  0
LINE
  5
5D
330
24
100
AcDbEntity
  8
0
100
AcDbLine
 10
25.0
 20
105.0
 30
0.0
 11
20.0
 21
105.0
 31
0.0
  0
LINE
  5
5E
330
24
100
AcDbEntity
  8
0
100
AcDbLine
 10
25.0
 20
57.5
 30
0.0
 11
20.0
 21
57.5
 31
0.0
  0
LINE
  5
5F
330
24
100
AcDbEntity
  8
0
100
AcDbLine
 10
68.66666666666668
 20
10.0
 30
0.0
 11
68.66666666666668
 21
5.0
 31
0.0
  0
LINE
  5
60
330
24
100
AcDbEntity
  8
0
100
AcDbLine
 10
112.3333333333333
 20
10.0
 30
0.0
 11
112.3333333333333
 21
5.0
 31
0.0
  0
LINE
  5
61
330
24
100
AcDbEntity
  8
0
100
AcDbLine
 10
156.0
 20
10.0
 30
0.0
 11
156.0
 21
5.0
 31
0.0
  0
LINE
  5
62
330
24
100
AcDbEntity
  8
0
100
AcDbLine
 10
199.6666666666666
 20
10.0
 30
0.0
 11
199.6666666666666
 21
5.0
 31
0.0
  0
LINE
  5
63
330
24
100
AcDbEntity
  8
0
100
AcDbLine
 10
243.3333333333333
 20
10.0
 30
0.0
 11
243.3333333333333
 21
5.0
 31
0.0
  0
LINE
  5
64
330
24
100
AcDbEntity
  8
0
100
AcDbLine
 10
287.0
 20
57.5
 30
0.0
 11
292.0
 21
57.5
 31
0.0
  0
LINE
  5
65
330
24
100
AcDbEntity
  8
0
100
AcDbLine
 10
287.0
 20
105.0
 30
0.0
 11
292.0
 21
105.0
 31
0.0
  0
LINE
  5
66
330
24
100
AcDbEntity
  8
0
100
AcDbLine
 10
287.0
 20
152.5
 30
0.0
 11
292.0
 21
152.5
 31
0.0
  0
LINE
  5
67
330
24
100
AcDbEntity
  8
0
100
AcDbLine
 10
243.3333333333333
 20
200.0
 30
0.0
 11
243.3333333333333
 21
205.0
 31
0.0
  0
LINE
  5
68
330
24
100
AcDbEntity
  8
0
100
AcDbLine
 10
199.6666666666666
 20
200.0
 30
0.0
 11
199.6666666666666
 21
205.0
 31
0.0
  0
LINE
  5
69
330
24
100
AcDbEntity
  8
0
100
AcDbLine
 10
156.0
 20
200.0
 30
0.0
 11
156.0
 21
205.0
 31
0.0
  0
LINE
  5
6A
330
24
100
AcDbEntity
  8
0
100
AcDbLine
 10
112.3333333333333
 20
200.0
 30
0.0
 11
112.3333333333333
 21
205.0
 31
0.0
  0
LINE
  5
6B
330
24
100
AcDbEntity
  8
0
100
AcDbLine
 10
68.66666666666666
 20
200.0
 30
0.0
 11
68.66666666666666
 21
205.0
 31
0.0
  0
TEXT
  5
6C
330
24
100
AcDbEntity
  8
0
100
AcDbText
 10
45.61904761904761
 20
201.0
 30
0.0
 40
3.0
  1
1
  7
ADESK1
 72
     1
 11
46.83333333333332
 21
201.0
 31
0.0
100
AcDbText
  0
TEXT
  5
6D
330
24
100
AcDbEntity
  8
0
100
AcDbText
 10
21.66139736003921
 20
176.25
 30
0.0
 40
3.0
  1
A
  7
ADESK1
 72
     1
 11
22.94711164575349
 21
176.25
 31
0.0
100
AcDbText
  0
TEXT
  5
6E
330
24
100
AcDbEntity
  8
0
100
AcDbText
 10
89.07142857142856
 20
201.0
 30
0.0
 40
3.0
  1
2
  7
ADESK1
 72
     1
 11
90.5
 21
201.0
 31
0.0
100
AcDbText
  0
TEXT
  5
6F
330
24
100
AcDbEntity
  8
0
100
AcDbText
 10
132.7380952380952
 20
201.0
 30
0.0
 40
3.0
  1
3
  7
ADESK1
 72
     1
 11
134.1666666666666
 21
201.0
 31
0.0
100
AcDbText
  0
TEXT
  5
70
330
24
100
AcDbEntity
  8
0
100
AcDbText
 10
176.3333333333333
 20
201.0
 30
0.0
 40
3.0
  1
4
  7
ADESK1
 72
     1
 11
177.8333333333333
 21
201.0
 31
0.0
100
AcDbText
  0
TEXT
  5
71
330
24
100
AcDbEntity
  8
0
100
AcDbText
 10
220.0714285714286
 20
201.0
 30
0.0
 40
3.0
  1
5
  7
ADESK1
 72
     1
 11
221.4999999999999
 21
201.0
 31
0.0
100
AcDbText
  0
TEXT
  5
72
330
24
100
AcDbEntity
  8
0
100
AcDbText
 10
263.6666666666666
 20
201.0
 30
0.0
 40
3.0
  1
6
  7
ADESK1
 72
     1
 11
265.1666666666666
 21
201.0
 31
0.0
100
AcDbText
  0
TEXT
  5
73
330
24
100
AcDbEntity
  8
0
100
AcDbText
 10
21.37568307432492
 20
128.75
 30
0.0
 40
3.0
  1
B
  7
ADESK1
 72
     1
 11
22.94711164575349
 21
128.75
 31
0.0
100
AcDbText
  0
TEXT
  5
74
330
24
100
AcDbEntity
  8
0
100
AcDbText
 10
21.44711164575349
 20
81.25
 30
0.0
 40
3.0
  1
C
  7
ADESK1
 72
     1
 11
22.94711164575349
 21
81.25
 31
0.0
100
AcDbText
  0
TEXT
  5
75
330
24
100
AcDbEntity
  8
0
100
AcDbText
 10
21.37568307432492
 20
33.75
 30
0.0
 40
3.0
  1
D
  7
ADESK1
 72
     1
 11
22.94711164575349
 21
33.75
 31
0.0
100
AcDbText
  0
TEXT
  5
76
330
24
100
AcDbEntity
  8
0
100
AcDbText
 10
45.61904761904759
 20
6.230338100985607
 30
0.0
 40
3.0
  1
1
  7
ADESK1
 72
     1
 11
46.83333333333331
 21
6.230338100985607
 31
0.0
100
AcDbText
  0
TEXT
  5
77
330
24
100
AcDbEntity
  8
0
100
AcDbText
 10
89.07142857142856
 20
6.230338100985607
 30
0.0
 40
3.0
  1
2
  7
ADESK1
 72
     1
 11
90.5
 21
6.230338100985607
 31
0.0
100
AcDbText
  0
TEXT
  5
78
330
24
100
AcDbEntity
  8
0
100
AcDbText
 10
132.7380952380952
 20
6.230338100985607
 30
0.0
 40
3.0
  1
3
  7
ADESK1
 72
     1
 11
134.1666666666666
 21
6.230338100985607
 31
0.0
100
AcDbText
  0
TEXT
  5
79
330
24
100
AcDbEntity
  8
0
100
AcDbText
 10
176.3333333333333
 20
6.230338100985607
 30
0.0
 40
3.0
  1
4
  7
ADESK1
 72
     1
 11
177.8333333333333
 21
6.230338100985607
 31
0.0
100
AcDbText
  0
TEXT
  5
7A
330
24
100
AcDbEntity
  8
0
100
AcDbText
 10
220.0714285714286
 20
6.230338100985607
 30
0.0
 40
3.0
  1
5
  7
ADESK1
 72
     1
 11
221.4999999999999
 21
6.230338100985607
 31
0.0
100
AcDbText
  0
TEXT
  5
7B
330
24
100
AcDbEntity
  8
0
100
AcDbText
 10
263.6666666666666
 20
6.230338100985607
 30
0.0
 40
3.0
  1
6
  7
ADESK1
 72
     1
 11
265.1666666666666
 21
6.230338100985607
 31
0.0
100
AcDbText
  0
TEXT
  5
7C
330
24
100
AcDbEntity
  8
0
100
AcDbText
 10
287.9530581679809
 20
176.25
 30
0.0
 40
3.0
  1
A
  7
ADESK1
 72
     1
 11
289.2387724536952
 21
176.25
 31
0.0
100
AcDbText
  0
TEXT
  5
7D
330
24
100
AcDbEntity
  8
0
100
AcDbText
 10
287.6673438822666
 20
128.75
 30
0.0
 40
3.0
  1
B
  7
ADESK1
 72
     1
 11
289.2387724536952
 21
128.75
 31
0.0
100
AcDbText
  0
TEXT
  5
7E
330
24
100
AcDbEntity
  8
0
100
AcDbText
 10
287.7387724536952
 20
81.25
 30
0.0
 40
3.0
  1
C
  7
ADESK1
 72
     1
 11
289.2387724536952
 21
81.25
 31
0.0
100
AcDbText
  0
TEXT
  5
7F
330
24
100
AcDbEntity
  8
0
100
AcDbText
 10
287.6673438822666
 20
33.75
 30
0.0
 40
3.0
  1
D
  7
ADESK1
 72
     1
 11
289.2387724536952
 21
33.75
 31
0.0
100
AcDbText
  0
LINE
  5
80
330
24
100
AcDbEntity
  8
0
 62
     0
100
AcDbLine
 10
157.2978723404242
 20
49.00000000000036
 30
0.0
 11
287.0
 21
49.00000000000036
 31
0.0
  0
LINE
  5
81
330
24
100
AcDbEntity
  8
0
 62
     0
100
AcDbLine
 10
157.2978723404242
 20
13.00000000000004
 30
0.0
 11
287.0
 21
13.00000000000004
 31
0.0
  0
LINE
  5
82
330
24
100
AcDbEntity
  8
0
 62
     0
100
AcDbLine
 10
157.2978723404242
 20
37.00000000000024
 30
0.0
 11
287.0
 21
37.00000000000024
 31
0.0
  0
LINE
  5
83
330
24
100
AcDbEntity
  8
0
 62
     0
100
AcDbLine
 10
195.1276595744673
 20
22.00000000000012
 30
0.0
 11
287.0
 21
22.00000000000012
 31
0.0
  0
LINE
  5
84
330
24
100
AcDbEntity
  8
0
 62
     0
100
AcDbLine
 10
157.2978723404242
 20
10.0
 30
0.0
 11
287.0
 21
10.0
 31
0.0
  0
LINE
  5
85
330
24
100
AcDbEntity
  8
0
 62
     0
100
AcDbLine
 10
287.0
 20
49.00000000000036
 30
0.0
 11
157.2978723404242
 21
49.00000000000036
 31
0.0
  0
LINE
  5
86
330
24
100
AcDbEntity
  8
0
 62
     0
100
AcDbLine
 10
180.7163120567365
 20
37.00000000000024
 30
0.0
 11
180.7163120567365
 21
10.0
 31
0.0
  0
LINE
  5
87
330
24
100
AcDbEntity
  8
0
 62
     0
100
AcDbLine
 10
162.702127659573
 20
37.00000000000024
 30
0.0
 11
162.702127659573
 21
10.0
 31
0.0
  0
LINE
  5
88
330
24
100
AcDbEntity
  8
0
 62
     0
100
AcDbLine
 10
189.7234042553184
 20
37.00000000000024
 30
0.0
 11
189.7234042553184
 21
10.0
 31
0.0
  0
LINE
  5
89
330
24
100
AcDbEntity
  8
0
 62
     0
100
AcDbLine
 10
195.1276595744673
 20
25.00000000000012
 30
0.0
 11
195.1276595744673
 21
10.0
 31
0.0
  0
LINE
  5
8A
330
24
100
AcDbEntity
  8
0
 62
     0
100
AcDbLine
 10
157.2978723404242
 20
49.00000000000036
 30
0.0
 11
157.2978723404242
 21
10.0
 31
0.0
  0
LINE
  5
8B
330
24
100
AcDbEntity
  8
0
 62
     0
100
AcDbLine
 10
225.7517730496447
 20
49.00000000000036
 30
0.0
 11
225.7517730496447
 21
10.0
 31
0.0
  0
LINE
  5
8C
330
24
100
AcDbEntity
  8
0
 62
     0
100
AcDbLine
 10
205.7659574468077
 20
22.00000000000007
 30
0.0
 11
205.7659574468077
 21
10.0
 31
0.0
  0
LINE
  5
8D
330
24
100
AcDbEntity
  8
0
 62
     0
100
AcDbLine
 10
216.4042553191484
 20
22.00000000000007
 30
0.0
 11
216.4042553191484
 21
10.0
 31
0.0
  0
LINE
  5
8E
330
24
100
AcDbEntity
  8
0
 62
     0
100
AcDbLine
 10
157.2978723404242
 20
16.00000000000008
 30
0.0
 11
195.1276595744673
 21
16.00000000000008
 31
0.0
  0
LINE
  5
8F
330
24
100
AcDbEntity
  8
0
 62
     0
100
AcDbLine
 10
157.2978723404242
 20
10.0
 30
0.0
 11
157.2978723404242
 21
13.00000000000004
 31
0.0
  0
TEXT
  5
90
330
24
100
AcDbEntity
  8
0
 62
     0
100
AcDbText
 10
198.7174935280942
 20
10.48329012996929
 30
0.0
 40
1.791674070777747
  1
製図
  7
ADESK1
 72
     1
 11
200.5688900678978
 21
10.48329012996929
 31
0.0
100
AcDbText
  0
TEXT
  5
91
330
24
100
AcDbEntity
  8
0
 62
     0
100
AcDbText
 10
209.2960689314087
 20
10.48329012996929
 30
0.0
 40
1.791674070777747
  1
設計
  7
ADESK1
 72
     1
 11
211.2071879402383
 21
10.48329012996929
 31
0.0
100
AcDbText
  0
TEXT
  5
92
330
24
100
AcDbEntity
  8
0
 62
     0
100
AcDbText
 10
219.2447163844405
 20
10.55220101068186
 30
0.0
 40
1.791674070777747
  1
照査
  7
ADESK1
 72
     1
 11
221.1558353932701
 21
10.55220101068186
 31
0.0
100
AcDbText
  0
LINE
  5
93
330
24
100
AcDbEntity
  8
0
 62
     0
100
AcDbLine
 10
157.2978723404242
 20
25.00000000000012
 30
0.0
 11
195.1276595744673
 21
25.00000000000012
 31
0.0
  0
LINE
  5
94
330
24
100
AcDbEntity
  8
0
 62
     0
100
AcDbLine
 10
157.2978723404242
 20
22.00000000000007
 30
0.0
 11
195.1276595744673
 21
22.00000000000012
 31
0.0
  0
LINE
  5
95
330
24
100
AcDbEntity
  8
0
 62
     0
100
AcDbLine
 10
157.2978723404242
 20
19.00000000000007
 30
0.0
 11
195.1276595744673
 21
19.00000000000012
 31
0.0
  0
LINE
  5
96
330
24
100
AcDbEntity
  8
0
 62
     0
100
AcDbLine
 10
157.2978723404242
 20
34.00000000000024
 30
0.0
 11
225.7517730496447
 21
34.00000000000024
 31
0.0
  0
LINE
  5
97
330
24
100
AcDbEntity
  8
0
 62
     0
100
AcDbLine
 10
157.2978723404242
 20
31.0000000000002
 30
0.0
 11
225.7517730496447
 21
31.0000000000002
 31
0.0
  0
LINE
  5
98
330
24
100
AcDbEntity
  8
0
 62
     0
100
AcDbLine
 10
157.2978723404242
 20
28.00000000000015
 30
0.0
 11
225.7517730496447
 21
28.00000000000015
 31
0.0
  0
LINE
  5
99
330
24
100
AcDbEntity
  8
0
 62
     0
100
AcDbLine
 10
195.1276595744673
 20
25.00000000000012
 30
0.0
 11
225.7517730496447
 21
25.00000000000012
 31
0.0
  0
LINE
  5
9A
330
24
100
AcDbEntity
  8
0
 62
     0
100
AcDbLine
 10
195.1276595744673
 20
49.00000000000036
 30
0.0
 11
195.1276595744673
 21
25.00000000000012
 31
0.0
  0
LINE
  5
9B
330
24
100
AcDbEntity
  8
0
 62
     0
100
AcDbLine
 10
202.3333333333325
 20
37.00000000000024
 30
0.0
 11
202.3333333333325
 21
25.00000000000012
 31
0.0
  0
LINE
  5
9C
330
24
100
AcDbEntity
  8
0
 62
     0
100
AcDbLine
 10
213.1418439716305
 20
49.00000000000036
 30
0.0
 11
213.1418439716305
 21
22.00000000000012
 31
0.0
  0
LINE
  5
9D
330
24
100
AcDbEntity
  8
0
 62
     0
100
AcDbLine
 10
279.7943262411347
 20
22.00000000000012
 30
0.0
 11
279.7943262411347
 21
10.0
 31
0.0
  0
LINE
  5
9E
330
24
100
AcDbEntity
  8
0
 62
     0
100
AcDbLine
 10
287.0
 20
49.00000000000036
 30
0.0
 11
287.0
 21
10.0
 31
0.0
  0
LINE
  5
9F
330
24
100
AcDbEntity
  8
0
 62
     0
100
AcDbLine
 10
287.0
 20
10.0
 30
0.0
 11
287.0
 21
49.00000000000036
 31
0.0
  0
LINE
  5
A0
330
24
100
AcDbEntity
  8
0
 62
     0
100
AcDbLine
 10
279.7943262411347
 20
16.00000000000008
 30
0.0
 11
287.0
 21
16.00000000000008
 31
0.0
  0
ENDBLK
  5
A2
330
24
100
AcDbEntity
  8
0
100
AcDbBlockEnd
  0
ENDSEC
  0
SECTION
  2
ENTITIES
  0
MTEXT
  5
938
330
18
100
AcDbEntity
  8
上書線
100
AcDbMText
 10
1865.739761775792
 20
499.0283937835011
 30
0.0
 40
37.5
 41
0.0
 71
     4
 72
     1
  1
\A1;
 73
     1
 44
1.0
  0
LINE
  5
123E
330
18
100
AcDbEntity
  8
基準線
100
AcDbLine
 10
710.0813698183028
 20
2117.506972677286
 30
0.0
 11
731.0813698183028
 21
2117.506972677286
 31
0.0
  0
LINE
  5
14BB
330
18
100
AcDbEntity
  8
基準線
100
AcDbLine
 10
1281.296189060135
 20
2744.451732006984
 30
0.0
 11
1631.12377476475
 21
2744.451732006984
 31
0.0
  0
LINE
  5
14BC
330
18
100
AcDbEntity
  8
基準線
100
AcDbLine
 10
1131.296189060135
 20
2594.451732006984
 30
0.0
 11
1604.134047986604
 21
2594.451732006984
 31
0.0
  0
LINE
  5
1546
330
18
100
AcDbEntity
  8
基準線
100
AcDbLine
 10
2000.40772718317
 20
1104.126411816217
 30
0.0
 11
2000.40772718317
 21
1262.163674897728
 31
0.0
  0
LINE
  5
154B
330
18
100
AcDbEntity
  8
基準線
100
AcDbLine
 10
2550.40772718317
 20
1049.126411816217
 30
0.0
 11
2550.40772718317
 21
1211.614819254876
 31
0.0
  0
LINE
  5
154C
330
18
100
AcDbEntity
  8
基準線
100
AcDbLine
 10
2150.40772718317
 20
1049.126411816217
 30
0.0
 11
2150.40772718317
 21
1226.779475202555
 31
0.0
  0
LINE
  5
15CA
330
18
100
AcDbEntity
  8
基準線
100
AcDbLine
 10
3419.935833980378
 20
2804.85492986955
 30
0.0
 11
3776.432100616551
 21
2804.85492986955
 31
0.0
  0
LINE
  5
15CC
330
18
100
AcDbEntity
  8
基準線
100
AcDbLine
 10
3776.432100616551
 20
2804.85492986955
 30
0.0
 11
4171.357345948922
 21
2804.85492986955
 31
0.0
  0
LINE
  5
15D0
330
18
100
AcDbEntity
  8
基準線
100
AcDbLine
 10
3419.935833980378
 20
2684.85492986955
 30
0.0
 11
3776.432100616551
 21
2684.85492986955
 31
0.0
  0
LINE
  5
15D1
330
18
100
AcDbEntity
  8
基準線
100
AcDbLine
 10
3598.183967298465
 20
2684.85492986955
 30
0.0
 11
3598.183967298465
 21
984.8549298695507
 31
0.0
  0
LINE
  5
15D2
330
18
100
AcDbEntity
  8
基準線
100
AcDbLine
 10
3776.432100616551
 20
2484.854929869551
 30
0.0
 11
4171.357345948921
 21
2484.85492986955
 31
0.0
  0
LINE
  5
15D3
330
18
100
AcDbEntity
  8
基準線
100
AcDbLine
 10
3973.894723282737
 20
2684.854929869551
 30
0.0
 11
3973.894723282734
 21
984.8549298695507
 31
0.0
  0
LINE
  5
15D4
330
18
100
AcDbEntity
  8
基準線
100
AcDbLine
 10
3419.935833980378
 20
2684.85492986955
 30
0.0
 11
3419.935833980378
 21
2584.85492986955
 31
0.0
  0
LINE
  5
15D5
330
18
100
AcDbEntity
  8
基準線
100
AcDbLine
 10
3419.935833980378
 20
2634.85492986955
 30
0.0
 11
4114.659436953616
 21
2634.85492986955
 31
0.0
  0
MTEXT
  5
25C7
330
18
100
AcDbEntity
  8
上書線
100
AcDbMText
 10
7865.026994389078
 20
4825.86703945326
 30
0.0
 40
50.0
 41
1096.913
 71
     1
 72
     5
  1
1100
 73
     1
 44
1.0
  0
LINE
  5
25C8
330
18
100
AcDbEntity
  8
上書線
100
AcDbLine
 10
8125.07043104169
 20
5971.794270580232
 30
0.0
 11
8125.07043104169
 21
4151.794270580231
 31
0.0
  0
LINE
  5
25C9
330
18
100
AcDbEntity
  8
上書線
100
AcDbLine
 10
8519.995676374058
 20
5971.794270580232
 30
0.0
 11
8519.995676374058
 21
4151.794270580231
 31
0.0
  0
LINE
  5
25CA
330
18
100
AcDbEntity
  8
上書線
100
AcDbLine
 10
7768.574164405515
 20
5971.794270580232
 30
0.0
 11
7768.574164405515
 21
4151.794270580231
 31
0.0
  0
MTEXT
  5
25CB
330
18
100
AcDbEntity
  8
上書線
100
AcDbMText
 10
7865.026994389078
 20
4225.867039453261
 30
0.0
 40
50.0
 41
1096.913
 71
     1
 72
     5
  1
1400
 73
     1
 44
1.0
  0
MTEXT
  5
25CC
330
18
100
AcDbEntity
  8
上書線
100
AcDbMText
 10
7865.026994389078
 20
4325.86703945326
 30
0.0
 40
50.0
 41
1096.913
 71
     1
 72
     5
  1
1350
 73
     1
 44
1.0
  0
MTEXT
  5
25CD
330
18
100
AcDbEntity
  8
上書線
100
AcDbMText
 10
7865.026994389078
 20
4425.867039453261
 30
0.0
 40
50.0
 41
1096.913
 71
     1
 72
     5
  1
1300
 73
     1
 44
1.0
  0
MTEXT
  5
25CE
330
18
100
AcDbEntity
  8
上書線
100
AcDbMText
 10
7865.026994389078
 20
4525.86703945326
 30
0.0
 40
50.0
 41
1096.913
 71
     1
 72
     5
  1
1250
 73
     1
 44
1.0
  0
MTEXT
  5
25CF
330
18
100
AcDbEntity
  8
上書線
100
AcDbMText
 10
7865.026994389078
 20
4625.86703945326
 30
0.0
 40
50.0
 41
1096.913
 71
     1
 72
     5
  1
1200
 73
     1
 44
1.0
  0
MTEXT
  5
25D0
330
18
100
AcDbEntity
  8
上書線
100
AcDbMText
 10
7865.026994389078
 20
4725.867039453261
 30
0.0
 40
50.0
 41
1096.913
 71
     1
 72
     5
  1
1150
 73
     1
 44
1.0
  0
LINE
  5
25D1
330
18
100
AcDbEntity
  8
上書線
100
AcDbLine
 10
8519.995676374058
 20
4251.794270580232
 30
0.0
 11
7768.574164405515
 21
4251.794270580232
 31
0.0
  0
LINE
  5
25D2
330
18
100
AcDbEntity
  8
上書線
100
AcDbLine
 10
8519.995676374058
 20
4351.794270580231
 30
0.0
 11
7768.574164405515
 21
4351.794270580231
 31
0.0
  0
LINE
  5
25D3
330
18
100
AcDbEntity
  8
上書線
100
AcDbLine
 10
8519.995676374058
 20
4451.794270580232
 30
0.0
 11
7768.574164405515
 21
4451.794270580232
 31
0.0
  0
LINE
  5
25D4
330
18
100
AcDbEntity
  8
上書線
100
AcDbLine
 10
8519.995676374058
 20
4551.794270580232
 30
0.0
 11
7768.574164405515
 21
4551.794270580232
 31
0.0
  0
LINE
  5
25D5
330
18
100
AcDbEntity
  8
上書線
100
AcDbLine
 10
8519.995676374058
 20
4651.794270580231
 30
0.0
 11
7768.574164405515
 21
4651.794270580231
 31
0.0
  0
LINE
  5
25D6
330
18
100
AcDbEntity
  8
上書線
100
AcDbLine
 10
8519.995676374058
 20
4751.794270580232
 30
0.0
 11
7768.574164405515
 21
4751.794270580232
 31
0.0
  0
LINE
  5
25D7
330
18
100
AcDbEntity
  8
上書線
100
AcDbLine
 10
8519.995676374058
 20
4151.794270580231
 30
0.0
 11
7768.574164405515
 21
4151.794270580231
 31
0.0
  0
MTEXT
  5
25D8
330
18
100
AcDbEntity
  8
上書線
100
AcDbMText
 10
8240.356828745246
 20
4331.505467277835
 30
0.0
 40
50.0
 41
1096.913
 71
     1
 72
     5
  1
1302
 73
     1
 44
1.0
  0
MTEXT
  5
25D9
330
18
100
AcDbEntity
  8
上書線
100
AcDbMText
 10
8240.356828745246
 20
4231.505467277834
 30
0.0
 40
50.0
 41
1096.913
 71
     1
 72
     5
  1
1351
 73
     1
 44
1.0
  0
MTEXT
  5
25DA
330
18
100
AcDbEntity
  8
上書線
100
AcDbMText
 10
8240.356828745246
 20
4431.505467277834
 30
0.0
 40
50.0
 41
1096.913
 71
     1
 72
     5
  1
1253
 73
     1
 44
1.0
  0
MTEXT
  5
25DB
330
18
100
AcDbEntity
  8
上書線
100
AcDbMText
 10
8240.356828745246
 20
4531.505467277834
 30
0.0
 40
50.0
 41
1096.913
 71
     1
 72
     5
  1
1204
 73
     1
 44
1.0
  0
MTEXT
  5
25DE
330
18
100
AcDbEntity
  8
上書線
100
AcDbMText
 10
7865.026994389078
 20
4925.867039453261
 30
0.0
 40
50.0
 41
1096.913
 71
     1
 72
     5
  1
1050
 73
     1
 44
1.0
  0
MTEXT
  5
25DF
330
18
100
AcDbEntity
  8
上書線
100
AcDbMText
 10
7865.026994389078
 20
5025.86703945326
 30
0.0
 40
50.0
 41
1096.913
 71
     1
 72
     5
  1
1000
 73
     1
 44
1.0
  0
MTEXT
  5
25E0
330
18
100
AcDbEntity
  8
上書線
100
AcDbMText
 10
7896.636960168675
 20
5125.867039453261
 30
0.0
 40
50.0
 41
1096.913
 71
     1
 72
     5
  1
950
 73
     1
 44
1.0
  0
MTEXT
  5
25E1
330
18
100
AcDbEntity
  8
上書線
100
AcDbMText
 10
7896.636960168675
 20
5225.867039453261
 30
0.0
 40
50.0
 41
1096.913
 71
     1
 72
     5
  1
900
 73
     1
 44
1.0
  0
MTEXT
  5
25E2
330
18
100
AcDbEntity
  8
上書線
100
AcDbMText
 10
7896.636960168675
 20
5325.86703945326
 30
0.0
 40
50.0
 41
1096.913
 71
     1
 72
     5
  1
850
 73
     1
 44
1.0
  0
MTEXT
  5
25E3
330
18
100
AcDbEntity
  8
上書線
100
AcDbMText
 10
7896.636960168675
 20
5425.867039453261
 30
0.0
 40
50.0
 41
1096.913
 71
     1
 72
     5
  1
800
 73
     1
 44
1.0
  0
MTEXT
  5
25E4
330
18
100
AcDbEntity
  8
上書線
100
AcDbMText
 10
7896.636960168675
 20
5525.86703945326
 30
0.0
 40
50.0
 41
1096.913
 71
     1
 72
     5
  1
750
 73
     1
 44
1.0
  0
MTEXT
  5
25E5
330
18
100
AcDbEntity
  8
上書線
100
AcDbMText
 10
7896.636960168675
 20
5625.867039453261
 30
0.0
 40
50.0
 41
1096.913
 71
     1
 72
     5
  1
700
 73
     1
 44
1.0
  0
MTEXT
  5
25E6
330
18
100
AcDbEntity
  8
上書線
100
AcDbMText
 10
7896.636960168675
 20
5725.867039453261
 30
0.0
 40
50.0
 41
1096.913
 71
     1
 72
     5
  1
650
 73
     1
 44
1.0
  0
MTEXT
  5
25E7
330
18
100
AcDbEntity
  8
上書線
100
AcDbMText
 10
7896.636960168675
 20
5825.86703945326
 30
0.0
 40
50.0
 41
1096.913
 71
     1
 72
     5
  1
600
 73
     1
 44
1.0
  0
LINE
  5
25E8
330
18
100
AcDbEntity
  8
上書線
100
AcDbLine
 10
8519.995676374058
 20
4851.794270580231
 30
0.0
 11
7768.574164405515
 21
4851.794270580231
 31
0.0
  0
LINE
  5
25E9
330
18
100
AcDbEntity
  8
上書線
100
AcDbLine
 10
8519.995676374058
 20
4951.794270580232
 30
0.0
 11
7768.574164405515
 21
4951.794270580232
 31
0.0
  0
LINE
  5
25EA
330
18
100
AcDbEntity
  8
上書線
100
AcDbLine
 10
8519.995676374058
 20
5051.794270580232
 30
0.0
 11
7768.574164405515
 21
5051.794270580232
 31
0.0
  0
LINE
  5
25EB
330
18
100
AcDbEntity
  8
上書線
100
AcDbLine
 10
8519.995676374058
 20
5151.794270580232
 30
0.0
 11
7768.574164405515
 21
5151.794270580232
 31
0.0
  0
LINE
  5
25EC
330
18
100
AcDbEntity
  8
上書線
100
AcDbLine
 10
8519.995676374058
 20
5251.794270580232
 30
0.0
 11
7768.574164405515
 21
5251.794270580232
 31
0.0
  0
LINE
  5
25ED
330
18
100
AcDbEntity
  8
上書線
100
AcDbLine
 10
8519.995676374058
 20
5351.794270580231
 30
0.0
 11
7768.574164405515
 21
5351.794270580231
 31
0.0
  0
LINE
  5
25EE
330
18
100
AcDbEntity
  8
上書線
100
AcDbLine
 10
8519.995676374058
 20
5451.794270580232
 30
0.0
 11
7768.574164405515
 21
5451.794270580232
 31
0.0
  0
LINE
  5
25EF
330
18
100
AcDbEntity
  8
上書線
100
AcDbLine
 10
8519.995676374058
 20
5551.794270580232
 30
0.0
 11
7768.574164405515
 21
5551.794270580232
 31
0.0
  0
LINE
  5
25F0
330
18
100
AcDbEntity
  8
上書線
100
AcDbLine
 10
8519.995676374058
 20
5651.794270580232
 30
0.0
 11
7768.574164405515
 21
5651.794270580232
 31
0.0
  0
LINE
  5
25F1
330
18
100
AcDbEntity
  8
上書線
100
AcDbLine
 10
8519.995676374058
 20
5751.794270580232
 30
0.0
 11
7768.574164405515
 21
5751.794270580232
 31
0.0
  0
LINE
  5
25F2
330
18
100
AcDbEntity
  8
上書線
100
AcDbLine
 10
8519.995676374058
 20
5851.794270580231
 30
0.0
 11
7768.574164405515
 21
5851.794270580231
 31
0.0
  0
LINE
  5
25F3
330
18
100
AcDbEntity
  8
上書線
100
AcDbLine
 10
8519.995676374058
 20
5971.794270580232
 30
0.0
 11
7768.574164405515
 21
5971.794270580232
 31
0.0
  0
MTEXT
  5
25F4
330
18
100
AcDbEntity
  8
上書線
100
AcDbMText
 10
7944.038868254697
 20
5942.573621118653
 30
0.0
 40
50.0
 41
1096.913
 71
     1
 72
     5
  1
(㎜）
 73
     1
 44
1.0
  0
MTEXT
  5
25F5
330
18
100
AcDbEntity
  8
上書線
100
AcDbMText
 10
7848.50268679571
 20
5938.117996561266
 30
0.0
 40
50.0
 41
1096.913
 71
     1
 72
     5
  1
H
 73
     1
 44
1.0
  0
MTEXT
  5
25F6
330
18
100
AcDbEntity
  8
上書線
100
AcDbMText
 10
8272.982518163017
 20
5831.505467277835
 30
0.0
 40
50.0
 41
1096.913
 71
     1
 72
     5
  1
571
 73
     1
 44
1.0
  0
MTEXT
  5
25F7
330
18
100
AcDbEntity
  8
上書線
100
AcDbMText
 10
8272.982518163017
 20
5331.505467277835
 30
0.0
 40
50.0
 41
1096.913
 71
     1
 72
     5
  1
814
 73
     1
 44
1.0
  0
MTEXT
  5
25F9
330
18
100
AcDbEntity
  8
上書線
100
AcDbMText
 10
8272.982518163017
 20
5031.505467277835
 30
0.0
 40
50.0
 41
1096.913
 71
     1
 72
     5
  1
961
 73
     1
 44
1.0
  0
MTEXT
  5
25FA
330
18
100
AcDbEntity
  8
上書線
100
AcDbMText
 10
8272.982518163017
 20
5131.505467277834
 30
0.0
 40
50.0
 41
1096.913
 71
     1
 72
     5
  1
912
 73
     1
 44
1.0
  0
MTEXT
  5
25FB
330
18
100
AcDbEntity
  8
上書線
100
AcDbMText
 10
8272.982518163017
 20
5231.505467277834
 30
0.0
 40
50.0
 41
1096.913
 71
     1
 72
     5
  1
863
 73
     1
 44
1.0
  0
MTEXT
  5
25FC
330
18
100
AcDbEntity
  8
上書線
100
AcDbMText
 10
8272.982518163017
 20
5431.505467277834
 30
0.0
 40
50.0
 41
1096.913
 71
     1
 72
     5
  1
766
 73
     1
 44
1.0
  0
MTEXT
  5
25FD
330
18
100
AcDbEntity
  8
上書線
100
AcDbMText
 10
8272.982518163017
 20
5531.505467277835
 30
0.0
 40
50.0
 41
1096.913
 71
     1
 72
     5
  1
717
 73
     1
 44
1.0
  0
MTEXT
  5
25FE
330
18
100
AcDbEntity
  8
上書線
100
AcDbMText
 10
8272.982518163017
 20
5631.505467277834
 30
0.0
 40
50.0
 41
1096.913
 71
     1
 72
     5
  1
668
 73
     1
 44
1.0
  0
MTEXT
  5
25FF
330
18
100
AcDbEntity
  8
上書線
100
AcDbMText
 10
8272.982518163017
 20
5731.505467277834
 30
0.0
 40
50.0
 41
1096.913
 71
     1
 72
     5
  1
619
 73
     1
 44
1.0
  0
MTEXT
  5
2600
330
18
100
AcDbEntity
  8
上書線
100
AcDbMText
 10
7990.818273502736
 20
6124.603256953117
 30
0.0
 40
60.0
 41
1096.913
 71
     1
 72
     5
  1
重量表
 73
     1
 44
1.0
  0
MTEXT
  5
2601
330
18
100
AcDbEntity
  8
上書線
100
AcDbMText
 10
8171.380832172857
 20
5942.573621118653
 30
0.0
 40
50.0
 41
1096.913
 71
     1
 72
     5
  1
重量
 73
     1
 44
1.0
  0
MTEXT
  5
2602
330
18
100
AcDbEntity
  8
上書線
100
AcDbMText
 10
8360.876598768969
 20
5942.573621118653
 30
0.0
 40
50.0
 41
1096.913
 71
     1
 72
     5
  1
(㎏）
 73
     1
 44
1.0
  0
LINE
  5
263A
102
{ACAD_REACTORS
330
263D
102
}
330
18
100
AcDbEntity
  8
OBJECT
100
AcDbLine
 10
5884.263183608055
 20
5718.211768567467
 30
0.0
 11
5284.263183608056
 21
5718.211768567467
 31
0.0
  0
LINE
  5
263B
102
{ACAD_REACTORS
330
263D
102
}
330
18
100
AcDbEntity
  8
OBJECT
100
AcDbLine
 10
5884.263183608055
 20
5718.211768567467
 30
0.0
 11
5284.263183608056
 21
5118.211768567467
 31
0.0
  0
LINE
  5
263C
102
{ACAD_REACTORS
330
263D
102
}
330
18
100
AcDbEntity
  8
OBJECT
100
AcDbLine
 10
5284.263183608056
 20
5718.211768567467
 30
0.0
 11
5284.263183608056
 21
5118.211768567467
 31
0.0
  0
LINE
  5
29B0
330
18
100
AcDbEntity
  8
OBJECT
100
AcDbLine
 10
5386.063183608058
 20
5220.01176856747
 30
0.0
 11
5295.263183608056
 21
5220.01176856747
 31
0.0
  0
LINE
  5
29B1
330
18
100
AcDbEntity
  8
OBJECT
100
AcDbLine
 10
5392.063183608058
 20
5226.01176856747
 30
0.0
 11
5295.263183608056
 21
5226.01176856747
 31
0.0
  0
LINE
  5
29B2
330
18
100
AcDbEntity
  8
OBJECT
100
AcDbLine
 10
5513.863183608058
 20
5347.81176856747
 30
0.0
 11
5295.263183608056
 21
5347.81176856747
 31
0.0
  0
LINE
  5
29B3
330
18
100
AcDbEntity
  8
OBJECT
100
AcDbLine
 10
5507.863183608058
 20
5341.81176856747
 30
0.0
 11
5295.263183608056
 21
5341.81176856747
 31
0.0
  0
LINE
  5
29B4
330
18
100
AcDbEntity
  8
OBJECT
100
AcDbLine
 10
5629.663183608057
 20
5463.611768567469
 30
0.0
 11
5295.263183608056
 21
5463.611768567469
 31
0.0
  0
LINE
  5
29B5
330
18
100
AcDbEntity
  8
OBJECT
100
AcDbLine
 10
5635.663183608056
 20
5469.611768567469
 30
0.0
 11
5295.263183608056
 21
5469.611768567469
 31
0.0
  0
LINE
  5
29B6
330
18
100
AcDbEntity
  8
OBJECT
100
AcDbLine
 10
5757.463183608056
 20
5591.411768567468
 30
0.0
 11
5295.263183608056
 21
5591.411768567468
 31
0.0
  0
LINE
  5
29B7
330
18
100
AcDbEntity
  8
OBJECT
100
AcDbLine
 10
5751.463183608056
 20
5585.411768567468
 30
0.0
 11
5295.263183608056
 21
5585.411768567468
 31
0.0
  0
LINE
  5
29B8
330
18
100
AcDbEntity
  8
OBJECT
100
AcDbLine
 10
5873.263183608056
 20
5707.211768567468
 30
0.0
 11
5295.263183608056
 21
5707.211768567468
 31
0.0
  0
LINE
  5
29B9
330
18
100
AcDbEntity
  8
OBJECT
100
AcDbLine
 10
5879.263183608055
 20
5713.211768567468
 30
0.0
 11
5289.263183608055
 21
5713.211768567468
 31
0.0
  0
LINE
  5
29BA
330
18
100
AcDbEntity
  8
OBJECT
100
AcDbLine
 10
5289.263183608055
 20
5713.211768567468
 30
0.0
 11
5289.263183608055
 21
5123.211768567467
 31
0.0
  0
LINE
  5
29BB
330
18
100
AcDbEntity
  8
OBJECT
100
AcDbLine
 10
5295.263183608056
 20
5707.211768567468
 30
0.0
 11
5295.263183608056
 21
5129.211768567468
 31
0.0
  0
LINE
  5
29BC
330
18
100
AcDbEntity
  8
OBJECT
100
AcDbLine
 10
5314.038462131726
 20
5347.811768567468
 30
0.0
 11
5314.038462131726
 21
5463.611768567469
 31
0.0
  0
LINE
  5
29BD
330
18
100
AcDbEntity
  8
OBJECT
100
AcDbLine
 10
5332.788472127126
 20
5347.811760116068
 30
0.0
 11
5332.788472127126
 21
5463.611760116069
 31
0.0
  0
LINE
  5
29BE
330
18
100
AcDbEntity
  8
OBJECT
100
AcDbLine
 10
5330.288472127126
 20
5347.811760116068
 30
0.0
 11
5330.288472127126
 21
5463.611760116069
 31
0.0
  0
LINE
  5
29BF
330
18
100
AcDbEntity
  8
OBJECT
100
AcDbLine
 10
5311.538462131726
 20
5347.811768567468
 30
0.0
 11
5311.538462131726
 21
5463.611768567469
 31
0.0
  0
LINE
  5
29C0
330
18
100
AcDbEntity
  8
OBJECT
100
AcDbLine
 10
5349.038492759309
 20
5347.811768567468
 30
0.0
 11
5349.038492759309
 21
5463.611768567469
 31
0.0
  0
LINE
  5
29C1
330
18
100
AcDbEntity
  8
OBJECT
100
AcDbLine
 10
5351.538492759309
 20
5347.811768567468
 30
0.0
 11
5351.538492759309
 21
5463.611768567469
 31
0.0
  0
LINE
  5
29C2
330
18
100
AcDbEntity
  8
OBJECT
100
AcDbLine
 10
5389.038534023675
 20
5347.811777018868
 30
0.0
 11
5389.038534023675
 21
5463.611777018869
 31
0.0
  0
LINE
  5
29C3
330
18
100
AcDbEntity
  8
OBJECT
100
AcDbLine
 10
5386.538534023674
 20
5347.811777018868
 30
0.0
 11
5386.538534023674
 21
5463.611777018869
 31
0.0
  0
LINE
  5
29C4
330
18
100
AcDbEntity
  8
OBJECT
100
AcDbLine
 10
5367.788513391491
 20
5347.811768567468
 30
0.0
 11
5367.788513391491
 21
5463.611768567469
 31
0.0
  0
LINE
  5
29C5
330
18
100
AcDbEntity
  8
OBJECT
100
AcDbLine
 10
5370.288513391492
 20
5347.811768567468
 30
0.0
 11
5370.288513391492
 21
5463.611768567469
 31
0.0
  0
LINE
  5
29C6
330
18
100
AcDbEntity
  8
OBJECT
100
AcDbLine
 10
5445.288595920223
 20
5347.811766394842
 30
0.0
 11
5445.288595920223
 21
5463.611766394842
 31
0.0
  0
LINE
  5
29C7
330
18
100
AcDbEntity
  8
OBJECT
100
AcDbLine
 10
5442.788595920223
 20
5347.811766394842
 30
0.0
 11
5442.788595920223
 21
5463.611766394842
 31
0.0
  0
LINE
  5
29C8
330
18
100
AcDbEntity
  8
OBJECT
100
AcDbLine
 10
5461.538616552406
 20
5347.811774846242
 30
0.0
 11
5461.538616552406
 21
5463.611774846242
 31
0.0
  0
LINE
  5
29C9
330
18
100
AcDbEntity
  8
OBJECT
100
AcDbLine
 10
5464.038616552406
 20
5347.811774846242
 30
0.0
 11
5464.038616552406
 21
5463.611774846242
 31
0.0
  0
LINE
  5
29CA
330
18
100
AcDbEntity
  8
OBJECT
100
AcDbLine
 10
5426.538575288041
 20
5347.811766394842
 30
0.0
 11
5426.538575288041
 21
5463.611766394842
 31
0.0
  0
LINE
  5
29CB
330
18
100
AcDbEntity
  8
OBJECT
100
AcDbLine
 10
5424.03857528804
 20
5347.811766394842
 30
0.0
 11
5424.03857528804
 21
5463.611766394842
 31
0.0
  0
LINE
  5
29CC
330
18
100
AcDbEntity
  8
OBJECT
100
AcDbLine
 10
5405.288554655857
 20
5347.811757943443
 30
0.0
 11
5405.288554655857
 21
5463.611757943443
 31
0.0
  0
LINE
  5
29CD
330
18
100
AcDbEntity
  8
OBJECT
100
AcDbLine
 10
5407.788554655858
 20
5347.811757943443
 30
0.0
 11
5407.788554655858
 21
5463.611757943443
 31
0.0
  0
LINE
  5
29CE
330
18
100
AcDbEntity
  8
OBJECT
100
AcDbLine
 10
5520.288678448955
 20
5354.237263408367
 30
0.0
 11
5520.288678448955
 21
5463.611757943443
 31
0.0
  0
LINE
  5
29CF
330
18
100
AcDbEntity
  8
OBJECT
100
AcDbLine
 10
5517.788678448955
 20
5351.737263408367
 30
0.0
 11
5517.788678448955
 21
5463.611757943443
 31
0.0
  0
LINE
  5
29D0
330
18
100
AcDbEntity
  8
OBJECT
100
AcDbLine
 10
5536.538699081138
 20
5370.487284040549
 30
0.0
 11
5536.538699081138
 21
5463.611766394842
 31
0.0
  0
LINE
  5
29D1
330
18
100
AcDbEntity
  8
OBJECT
100
AcDbLine
 10
5539.038699081138
 20
5372.98728404055
 30
0.0
 11
5539.038699081138
 21
5463.611766394842
 31
0.0
  0
LINE
  5
29D2
330
18
100
AcDbEntity
  8
OBJECT
100
AcDbLine
 10
5501.538657816772
 20
5347.811757943443
 30
0.0
 11
5501.538657816772
 21
5463.611757943443
 31
0.0
  0
LINE
  5
29D3
330
18
100
AcDbEntity
  8
OBJECT
100
AcDbLine
 10
5499.038657816772
 20
5347.811757943443
 30
0.0
 11
5499.038657816772
 21
5463.611757943443
 31
0.0
  0
LINE
  5
29D4
330
18
100
AcDbEntity
  8
OBJECT
100
AcDbLine
 10
5480.288637184589
 20
5347.811749492042
 30
0.0
 11
5480.288637184589
 21
5463.611749492043
 31
0.0
  0
LINE
  5
29D5
330
18
100
AcDbEntity
  8
OBJECT
100
AcDbLine
 10
5482.788637184589
 20
5347.811749492042
 30
0.0
 11
5482.788637184589
 21
5463.611749492043
 31
0.0
  0
LINE
  5
2A0A
330
18
100
AcDbEntity
  8
OBJECT
100
AcDbLine
 10
5314.038462131726
 20
5147.987047091138
 30
0.0
 11
5314.038462131726
 21
5220.01176856747
 31
0.0
  0
LINE
  5
2A0B
330
18
100
AcDbEntity
  8
OBJECT
100
AcDbLine
 10
5332.788472127126
 20
5166.737057086538
 30
0.0
 11
5332.788472127126
 21
5220.011760116071
 31
0.0
  0
LINE
  5
2A0C
330
18
100
AcDbEntity
  8
OBJECT
100
AcDbLine
 10
5330.288472127126
 20
5164.237057086538
 30
0.0
 11
5330.288472127126
 21
5220.011760116071
 31
0.0
  0
LINE
  5
2A0D
330
18
100
AcDbEntity
  8
OBJECT
100
AcDbLine
 10
5311.538462131726
 20
5145.487047091138
 30
0.0
 11
5311.538462131726
 21
5220.01176856747
 31
0.0
  0
LINE
  5
2A0E
330
18
100
AcDbEntity
  8
OBJECT
100
AcDbLine
 10
5349.038492759309
 20
5182.987077718721
 30
0.0
 11
5349.038492759309
 21
5220.01176856747
 31
0.0
  0
LINE
  5
2A0F
330
18
100
AcDbEntity
  8
OBJECT
100
AcDbLine
 10
5351.538492759309
 20
5185.487077718721
 30
0.0
 11
5351.538492759309
 21
5220.01176856747
 31
0.0
  0
LINE
  5
2A12
330
18
100
AcDbEntity
  8
OBJECT
100
AcDbLine
 10
5367.788513391491
 20
5201.737098350903
 30
0.0
 11
5367.788513391491
 21
5220.01176856747
 31
0.0
  0
LINE
  5
2A13
330
18
100
AcDbEntity
  8
OBJECT
100
AcDbLine
 10
5370.288513391492
 20
5204.237098350904
 30
0.0
 11
5370.288513391492
 21
5220.01176856747
 31
0.0
  0
LINE
  5
2A3E
330
18
100
AcDbEntity
  8
OBJECT
100
AcDbLine
 10
5370.288513391492
 20
5341.811768567471
 30
0.0
 11
5370.288513391492
 21
5226.01176856747
 31
0.0
  0
LINE
  5
2A3F
330
18
100
AcDbEntity
  8
OBJECT
100
AcDbLine
 10
5367.788513391491
 20
5341.811768567471
 30
0.0
 11
5367.788513391491
 21
5226.01176856747
 31
0.0
  0
LINE
  5
2A40
330
18
100
AcDbEntity
  8
OBJECT
100
AcDbLine
 10
5351.538492759309
 20
5341.811768567471
 30
0.0
 11
5351.538492759309
 21
5226.01176856747
 31
0.0
  0
LINE
  5
2A41
330
18
100
AcDbEntity
  8
OBJECT
100
AcDbLine
 10
5349.038492759309
 20
5341.811768567471
 30
0.0
 11
5349.038492759309
 21
5226.01176856747
 31
0.0
  0
LINE
  5
2A42
330
18
100
AcDbEntity
  8
OBJECT
100
AcDbLine
 10
5311.538462131726
 20
5341.811768567471
 30
0.0
 11
5311.538462131726
 21
5226.01176856747
 31
0.0
  0
LINE
  5
2A43
330
18
100
AcDbEntity
  8
OBJECT
100
AcDbLine
 10
5330.288472127126
 20
5341.811777018871
 30
0.0
 11
5330.288472127126
 21
5226.01177701887
 31
0.0
  0
LINE
  5
2A44
330
18
100
AcDbEntity
  8
OBJECT
100
AcDbLine
 10
5332.788472127126
 20
5341.811777018871
 30
0.0
 11
5332.788472127126
 21
5226.01177701887
 31
0.0
  0
LINE
  5
2A45
330
18
100
AcDbEntity
  8
OBJECT
100
AcDbLine
 10
5314.038462131726
 20
5341.811768567471
 30
0.0
 11
5314.038462131726
 21
5226.01176856747
 31
0.0
  0
LINE
  5
2A46
330
18
100
AcDbEntity
  8
OBJECT
100
AcDbLine
 10
5482.788637184589
 20
5341.811787642897
 30
0.0
 11
5482.788637184589
 21
5316.737222144001
 31
0.0
  0
LINE
  5
2A47
330
18
100
AcDbEntity
  8
OBJECT
100
AcDbLine
 10
5480.288637184589
 20
5341.811787642897
 30
0.0
 11
5480.288637184589
 21
5314.237222144001
 31
0.0
  0
LINE
  5
2A48
330
18
100
AcDbEntity
  8
OBJECT
100
AcDbLine
 10
5499.038657816772
 20
5341.811779191496
 30
0.0
 11
5499.038657816772
 21
5332.987242776184
 31
0.0
  0
LINE
  5
2A49
330
18
100
AcDbEntity
  8
OBJECT
100
AcDbLine
 10
5501.538657816772
 20
5341.811779191496
 30
0.0
 11
5501.538657816772
 21
5335.487242776184
 31
0.0
  0
LINE
  5
2A4E
330
18
100
AcDbEntity
  8
OBJECT
100
AcDbLine
 10
5407.788554655858
 20
5341.811779191496
 30
0.0
 11
5407.788554655858
 21
5241.73713961527
 31
0.0
  0
LINE
  5
2A4F
330
18
100
AcDbEntity
  8
OBJECT
100
AcDbLine
 10
5405.288554655857
 20
5341.811779191496
 30
0.0
 11
5405.288554655857
 21
5239.237139615269
 31
0.0
  0
LINE
  5
2A50
330
18
100
AcDbEntity
  8
OBJECT
100
AcDbLine
 10
5424.03857528804
 20
5341.811770740097
 30
0.0
 11
5424.03857528804
 21
5257.987160247452
 31
0.0
  0
LINE
  5
2A51
330
18
100
AcDbEntity
  8
OBJECT
100
AcDbLine
 10
5426.538575288041
 20
5341.811770740097
 30
0.0
 11
5426.538575288041
 21
5260.487160247452
 31
0.0
  0
LINE
  5
2A52
330
18
100
AcDbEntity
  8
OBJECT
100
AcDbLine
 10
5464.038616552406
 20
5341.811762288697
 30
0.0
 11
5464.038616552406
 21
5297.987201511818
 31
0.0
  0
LINE
  5
2A53
330
18
100
AcDbEntity
  8
OBJECT
100
AcDbLine
 10
5461.538616552406
 20
5341.811762288697
 30
0.0
 11
5461.538616552406
 21
5295.487201511818
 31
0.0
  0
LINE
  5
2A54
330
18
100
AcDbEntity
  8
OBJECT
100
AcDbLine
 10
5442.788595920223
 20
5341.811770740097
 30
0.0
 11
5442.788595920223
 21
5276.737180879635
 31
0.0
  0
LINE
  5
2A55
330
18
100
AcDbEntity
  8
OBJECT
100
AcDbLine
 10
5445.288595920223
 20
5341.811770740097
 30
0.0
 11
5445.288595920223
 21
5279.237180879635
 31
0.0
  0
LINE
  5
2A56
330
18
100
AcDbEntity
  8
OBJECT
100
AcDbLine
 10
5386.538534023674
 20
5341.811760116071
 30
0.0
 11
5386.538534023674
 21
5226.011760116071
 31
0.0
  0
LINE
  5
2A57
330
18
100
AcDbEntity
  8
OBJECT
100
AcDbLine
 10
5389.038534023675
 20
5341.811760116071
 30
0.0
 11
5389.038534023675
 21
5226.011760116071
 31
0.0
  0
LINE
  5
2A58
330
18
100
AcDbEntity
  8
OBJECT
100
AcDbLine
 10
5314.038462131726
 20
5591.411768567467
 30
0.0
 11
5314.038462131726
 21
5707.211768567468
 31
0.0
  0
LINE
  5
2A59
330
18
100
AcDbEntity
  8
OBJECT
100
AcDbLine
 10
5332.788472127126
 20
5591.411760116066
 30
0.0
 11
5332.788472127126
 21
5707.211760116068
 31
0.0
  0
LINE
  5
2A5A
330
18
100
AcDbEntity
  8
OBJECT
100
AcDbLine
 10
5330.288472127126
 20
5591.411760116066
 30
0.0
 11
5330.288472127126
 21
5707.211760116068
 31
0.0
  0
LINE
  5
2A5B
330
18
100
AcDbEntity
  8
OBJECT
100
AcDbLine
 10
5311.538462131726
 20
5591.411768567467
 30
0.0
 11
5311.538462131726
 21
5707.211768567468
 31
0.0
  0
LINE
  5
2A5C
330
18
100
AcDbEntity
  8
OBJECT
100
AcDbLine
 10
5349.038492759309
 20
5591.411768567467
 30
0.0
 11
5349.038492759309
 21
5707.211768567468
 31
0.0
  0
LINE
  5
2A5D
330
18
100
AcDbEntity
  8
OBJECT
100
AcDbLine
 10
5351.538492759309
 20
5591.411768567467
 30
0.0
 11
5351.538492759309
 21
5707.211768567468
 31
0.0
  0
LINE
  5
2A5E
330
18
100
AcDbEntity
  8
OBJECT
100
AcDbLine
 10
5389.038534023675
 20
5591.411777018866
 30
0.0
 11
5389.038534023675
 21
5707.211777018867
 31
0.0
  0
LINE
  5
2A5F
330
18
100
AcDbEntity
  8
OBJECT
100
AcDbLine
 10
5386.538534023674
 20
5591.411777018866
 30
0.0
 11
5386.538534023674
 21
5707.211777018867
 31
0.0
  0
LINE
  5
2A60
330
18
100
AcDbEntity
  8
OBJECT
100
AcDbLine
 10
5367.788513391491
 20
5591.411768567467
 30
0.0
 11
5367.788513391491
 21
5707.211768567468
 31
0.0
  0
LINE
  5
2A61
330
18
100
AcDbEntity
  8
OBJECT
100
AcDbLine
 10
5370.288513391492
 20
5591.411768567467
 30
0.0
 11
5370.288513391492
 21
5707.211768567468
 31
0.0
  0
LINE
  5
2A62
330
18
100
AcDbEntity
  8
OBJECT
100
AcDbLine
 10
5445.288595920223
 20
5591.411766394841
 30
0.0
 11
5445.288595920223
 21
5707.211766394841
 31
0.0
  0
LINE
  5
2A63
330
18
100
AcDbEntity
  8
OBJECT
100
AcDbLine
 10
5442.788595920223
 20
5591.411766394841
 30
0.0
 11
5442.788595920223
 21
5707.211766394841
 31
0.0
  0
LINE
  5
2A64
330
18
100
AcDbEntity
  8
OBJECT
100
AcDbLine
 10
5461.538616552406
 20
5591.41177484624
 30
0.0
 11
5461.538616552406
 21
5707.21177484624
 31
0.0
  0
LINE
  5
2A65
330
18
100
AcDbEntity
  8
OBJECT
100
AcDbLine
 10
5464.038616552406
 20
5591.41177484624
 30
0.0
 11
5464.038616552406
 21
5707.21177484624
 31
0.0
  0
LINE
  5
2A66
330
18
100
AcDbEntity
  8
OBJECT
100
AcDbLine
 10
5426.538575288041
 20
5591.411766394841
 30
0.0
 11
5426.538575288041
 21
5707.211766394841
 31
0.0
  0
LINE
  5
2A67
330
18
100
AcDbEntity
  8
OBJECT
100
AcDbLine
 10
5424.03857528804
 20
5591.411766394841
 30
0.0
 11
5424.03857528804
 21
5707.211766394841
 31
0.0
  0
LINE
  5
2A68
330
18
100
AcDbEntity
  8
OBJECT
100
AcDbLine
 10
5405.288554655857
 20
5591.411757943442
 30
0.0
 11
5405.288554655857
 21
5707.211757943442
 31
0.0
  0
LINE
  5
2A69
330
18
100
AcDbEntity
  8
OBJECT
100
AcDbLine
 10
5407.788554655858
 20
5591.411757943442
 30
0.0
 11
5407.788554655858
 21
5707.211757943442
 31
0.0
  0
LINE
  5
2A6A
330
18
100
AcDbEntity
  8
OBJECT
100
AcDbLine
 10
5520.288678448955
 20
5591.411757943442
 30
0.0
 11
5520.288678448955
 21
5707.211757943442
 31
0.0
  0
LINE
  5
2A6B
330
18
100
AcDbEntity
  8
OBJECT
100
AcDbLine
 10
5517.788678448955
 20
5591.411757943442
 30
0.0
 11
5517.788678448955
 21
5707.211757943442
 31
0.0
  0
LINE
  5
2A6C
330
18
100
AcDbEntity
  8
OBJECT
100
AcDbLine
 10
5536.538699081138
 20
5591.411766394841
 30
0.0
 11
5536.538699081138
 21
5707.211766394841
 31
0.0
  0
LINE
  5
2A6D
330
18
100
AcDbEntity
  8
OBJECT
100
AcDbLine
 10
5539.038699081138
 20
5591.411766394841
 30
0.0
 11
5539.038699081138
 21
5707.211766394841
 31
0.0
  0
LINE
  5
2A6E
330
18
100
AcDbEntity
  8
OBJECT
100
AcDbLine
 10
5501.538657816772
 20
5591.411757943442
 30
0.0
 11
5501.538657816772
 21
5707.211757943442
 31
0.0
  0
LINE
  5
2A6F
330
18
100
AcDbEntity
  8
OBJECT
100
AcDbLine
 10
5499.038657816772
 20
5591.411757943442
 30
0.0
 11
5499.038657816772
 21
5707.211757943442
 31
0.0
  0
LINE
  5
2A70
330
18
100
AcDbEntity
  8
OBJECT
100
AcDbLine
 10
5480.288637184589
 20
5591.411749492041
 30
0.0
 11
5480.288637184589
 21
5707.211749492042
 31
0.0
  0
LINE
  5
2A71
330
18
100
AcDbEntity
  8
OBJECT
100
AcDbLine
 10
5482.788637184589
 20
5591.411749492041
 30
0.0
 11
5482.788637184589
 21
5707.211749492042
 31
0.0
  0
LINE
  5
2A72
330
18
100
AcDbEntity
  8
OBJECT
100
AcDbLine
 10
5370.288513391492
 20
5585.41176856747
 30
0.0
 11
5370.288513391492
 21
5469.611768567469
 31
0.0
  0
LINE
  5
2A73
330
18
100
AcDbEntity
  8
OBJECT
100
AcDbLine
 10
5367.788513391491
 20
5585.41176856747
 30
0.0
 11
5367.788513391491
 21
5469.611768567469
 31
0.0
  0
LINE
  5
2A74
330
18
100
AcDbEntity
  8
OBJECT
100
AcDbLine
 10
5351.538492759309
 20
5585.41176856747
 30
0.0
 11
5351.538492759309
 21
5469.611768567469
 31
0.0
  0
LINE
  5
2A75
330
18
100
AcDbEntity
  8
OBJECT
100
AcDbLine
 10
5349.038492759309
 20
5585.41176856747
 30
0.0
 11
5349.038492759309
 21
5469.611768567469
 31
0.0
  0
LINE
  5
2A76
330
18
100
AcDbEntity
  8
OBJECT
100
AcDbLine
 10
5311.538462131726
 20
5585.41176856747
 30
0.0
 11
5311.538462131726
 21
5469.611768567469
 31
0.0
  0
LINE
  5
2A77
330
18
100
AcDbEntity
  8
OBJECT
100
AcDbLine
 10
5330.288472127126
 20
5585.411777018869
 30
0.0
 11
5330.288472127126
 21
5469.611777018869
 31
0.0
  0
LINE
  5
2A78
330
18
100
AcDbEntity
  8
OBJECT
100
AcDbLine
 10
5332.788472127126
 20
5585.411777018869
 30
0.0
 11
5332.788472127126
 21
5469.611777018869
 31
0.0
  0
LINE
  5
2A79
330
18
100
AcDbEntity
  8
OBJECT
100
AcDbLine
 10
5314.038462131726
 20
5585.41176856747
 30
0.0
 11
5314.038462131726
 21
5469.611768567469
 31
0.0
  0
LINE
  5
2A7A
330
18
100
AcDbEntity
  8
OBJECT
100
AcDbLine
 10
5482.788637184589
 20
5585.411787642896
 30
0.0
 11
5482.788637184589
 21
5469.611787642894
 31
0.0
  0
LINE
  5
2A7B
330
18
100
AcDbEntity
  8
OBJECT
100
AcDbLine
 10
5480.288637184589
 20
5585.411787642896
 30
0.0
 11
5480.288637184589
 21
5469.611787642894
 31
0.0
  0
LINE
  5
2A7C
330
18
100
AcDbEntity
  8
OBJECT
100
AcDbLine
 10
5499.038657816772
 20
5585.411779191495
 30
0.0
 11
5499.038657816772
 21
5469.611779191495
 31
0.0
  0
LINE
  5
2A7D
330
18
100
AcDbEntity
  8
OBJECT
100
AcDbLine
 10
5501.538657816772
 20
5585.411779191495
 30
0.0
 11
5501.538657816772
 21
5469.611779191495
 31
0.0
  0
LINE
  5
2A7E
330
18
100
AcDbEntity
  8
OBJECT
100
AcDbLine
 10
5539.038699081138
 20
5585.411770740096
 30
0.0
 11
5539.038699081138
 21
5469.611770740096
 31
0.0
  0
LINE
  5
2A7F
330
18
100
AcDbEntity
  8
OBJECT
100
AcDbLine
 10
5536.538699081138
 20
5585.411770740096
 30
0.0
 11
5536.538699081138
 21
5469.611770740096
 31
0.0
  0
LINE
  5
2A80
330
18
100
AcDbEntity
  8
OBJECT
100
AcDbLine
 10
5517.788678448955
 20
5585.411779191495
 30
0.0
 11
5517.788678448955
 21
5469.611779191495
 31
0.0
  0
LINE
  5
2A81
330
18
100
AcDbEntity
  8
OBJECT
100
AcDbLine
 10
5520.288678448955
 20
5585.411779191495
 30
0.0
 11
5520.288678448955
 21
5469.611779191495
 31
0.0
  0
LINE
  5
2A82
330
18
100
AcDbEntity
  8
OBJECT
100
AcDbLine
 10
5407.788554655858
 20
5585.411779191495
 30
0.0
 11
5407.788554655858
 21
5469.611779191495
 31
0.0
  0
LINE
  5
2A83
330
18
100
AcDbEntity
  8
OBJECT
100
AcDbLine
 10
5405.288554655857
 20
5585.411779191495
 30
0.0
 11
5405.288554655857
 21
5469.611779191495
 31
0.0
  0
LINE
  5
2A84
330
18
100
AcDbEntity
  8
OBJECT
100
AcDbLine
 10
5424.03857528804
 20
5585.411770740096
 30
0.0
 11
5424.03857528804
 21
5469.611770740096
 31
0.0
  0
LINE
  5
2A85
330
18
100
AcDbEntity
  8
OBJECT
100
AcDbLine
 10
5426.538575288041
 20
5585.411770740096
 30
0.0
 11
5426.538575288041
 21
5469.611770740096
 31
0.0
  0
LINE
  5
2A86
330
18
100
AcDbEntity
  8
OBJECT
100
AcDbLine
 10
5464.038616552406
 20
5585.411762288696
 30
0.0
 11
5464.038616552406
 21
5469.611762288696
 31
0.0
  0
LINE
  5
2A87
330
18
100
AcDbEntity
  8
OBJECT
100
AcDbLine
 10
5461.538616552406
 20
5585.411762288696
 30
0.0
 11
5461.538616552406
 21
5469.611762288696
 31
0.0
  0
LINE
  5
2A88
330
18
100
AcDbEntity
  8
OBJECT
100
AcDbLine
 10
5442.788595920223
 20
5585.411770740096
 30
0.0
 11
5442.788595920223
 21
5469.611770740096
 31
0.0
  0
LINE
  5
2A89
330
18
100
AcDbEntity
  8
OBJECT
100
AcDbLine
 10
5445.288595920223
 20
5585.411770740096
 30
0.0
 11
5445.288595920223
 21
5469.611770740096
 31
0.0
  0
LINE
  5
2A8A
330
18
100
AcDbEntity
  8
OBJECT
100
AcDbLine
 10
5386.538534023674
 20
5585.41176011607
 30
0.0
 11
5386.538534023674
 21
5469.61176011607
 31
0.0
  0
LINE
  5
2A8B
330
18
100
AcDbEntity
  8
OBJECT
100
AcDbLine
 10
5389.038534023675
 20
5585.41176011607
 30
0.0
 11
5389.038534023675
 21
5469.61176011607
 31
0.0
  0
LINE
  5
2ACD
330
18
100
AcDbEntity
  8
OBJECT
100
AcDbLine
 10
5574.038740345503
 20
5407.987325304915
 30
0.0
 11
5574.038740345503
 21
5463.611755770816
 31
0.0
  0
LINE
  5
2ACE
330
18
100
AcDbEntity
  8
OBJECT
100
AcDbLine
 10
5576.538740345504
 20
5410.487325304916
 30
0.0
 11
5576.538740345504
 21
5463.611755770816
 31
0.0
  0
LINE
  5
2ACF
330
18
100
AcDbEntity
  8
OBJECT
100
AcDbLine
 10
5614.03878160987
 20
5447.987366569281
 30
0.0
 11
5614.03878160987
 21
5463.611764222218
 31
0.0
  0
LINE
  5
2AD0
330
18
100
AcDbEntity
  8
OBJECT
100
AcDbLine
 10
5611.538781609869
 20
5445.487366569281
 30
0.0
 11
5611.538781609869
 21
5463.611764222218
 31
0.0
  0
LINE
  5
2AD1
330
18
100
AcDbEntity
  8
OBJECT
100
AcDbLine
 10
5592.788760977686
 20
5426.737345937098
 30
0.0
 11
5592.788760977686
 21
5463.611755770816
 31
0.0
  0
LINE
  5
2AD2
330
18
100
AcDbEntity
  8
OBJECT
100
AcDbLine
 10
5595.288760977687
 20
5429.237345937099
 30
0.0
 11
5595.288760977687
 21
5463.611755770816
 31
0.0
  0
LINE
  5
2AD6
330
18
100
AcDbEntity
  8
OBJECT
100
AcDbLine
 10
5557.788719713321
 20
5391.737304672733
 30
0.0
 11
5557.788719713321
 21
5463.611747319418
 31
0.0
  0
LINE
  5
2AD7
330
18
100
AcDbEntity
  8
OBJECT
100
AcDbLine
 10
5555.28871971332
 20
5389.237304672732
 30
0.0
 11
5555.28871971332
 21
5463.611747319418
 31
0.0
  0
LINE
  5
2C59
330
18
100
AcDbEntity
  8
OBJECT
100
AcDbLine
 10
5574.038740345503
 20
5591.411755770815
 30
0.0
 11
5574.038740345503
 21
5707.211755770815
 31
0.0
  0
LINE
  5
2C5A
330
18
100
AcDbEntity
  8
OBJECT
100
AcDbLine
 10
5576.538740345504
 20
5591.411755770815
 30
0.0
 11
5576.538740345504
 21
5707.211755770815
 31
0.0
  0
LINE
  5
2C5B
330
18
100
AcDbEntity
  8
OBJECT
100
AcDbLine
 10
5614.03878160987
 20
5591.411764222215
 30
0.0
 11
5614.03878160987
 21
5707.211764222216
 31
0.0
  0
LINE
  5
2C5C
330
18
100
AcDbEntity
  8
OBJECT
100
AcDbLine
 10
5611.538781609869
 20
5591.411764222215
 30
0.0
 11
5611.538781609869
 21
5707.211764222216
 31
0.0
  0
LINE
  5
2C5D
330
18
100
AcDbEntity
  8
OBJECT
100
AcDbLine
 10
5592.788760977686
 20
5591.411755770815
 30
0.0
 11
5592.788760977686
 21
5707.211755770815
 31
0.0
  0
LINE
  5
2C5E
330
18
100
AcDbEntity
  8
OBJECT
100
AcDbLine
 10
5595.288760977687
 20
5591.411755770815
 30
0.0
 11
5595.288760977687
 21
5707.211755770815
 31
0.0
  0
LINE
  5
2C5F
330
18
100
AcDbEntity
  8
OBJECT
100
AcDbLine
 10
5782.788967299516
 20
5616.737552258928
 30
0.0
 11
5782.788967299516
 21
5707.211738868016
 31
0.0
  0
LINE
  5
2C60
330
18
100
AcDbEntity
  8
OBJECT
100
AcDbLine
 10
5780.288967299515
 20
5614.237552258927
 30
0.0
 11
5780.288967299515
 21
5707.211738868016
 31
0.0
  0
LINE
  5
2C61
330
18
100
AcDbEntity
  8
OBJECT
100
AcDbLine
 10
5799.038987931698
 20
5632.98757289111
 30
0.0
 11
5799.038987931698
 21
5707.211747319416
 31
0.0
  0
LINE
  5
2C62
330
18
100
AcDbEntity
  8
OBJECT
100
AcDbLine
 10
5801.538987931698
 20
5635.48757289111
 30
0.0
 11
5801.538987931698
 21
5707.211747319416
 31
0.0
  0
LINE
  5
2C63
330
18
100
AcDbEntity
  8
OBJECT
100
AcDbLine
 10
5839.039029196064
 20
5672.987614155476
 30
0.0
 11
5839.039029196064
 21
5707.211755770815
 31
0.0
  0
LINE
  5
2C64
330
18
100
AcDbEntity
  8
OBJECT
100
AcDbLine
 10
5836.539029196064
 20
5670.487614155476
 30
0.0
 11
5836.539029196064
 21
5707.211755770815
 31
0.0
  0
LINE
  5
2C65
330
18
100
AcDbEntity
  8
OBJECT
100
AcDbLine
 10
5817.789008563881
 20
5651.737593523293
 30
0.0
 11
5817.789008563881
 21
5707.211747319416
 31
0.0
  0
LINE
  5
2C66
330
18
100
AcDbEntity
  8
OBJECT
100
AcDbLine
 10
5820.289008563881
 20
5654.237593523293
 30
0.0
 11
5820.289008563881
 21
5707.211747319416
 31
0.0
  0
LINE
  5
2C6D
330
18
100
AcDbEntity
  8
OBJECT
100
AcDbLine
 10
5855.289049828247
 20
5689.237634787659
 30
0.0
 11
5855.289049828247
 21
5707.21173669539
 31
0.0
  0
LINE
  5
2C6E
330
18
100
AcDbEntity
  8
OBJECT
100
AcDbLine
 10
5857.789049828247
 20
5691.737634787659
 30
0.0
 11
5857.789049828247
 21
5707.21173669539
 31
0.0
  0
LINE
  5
2C6F
330
18
100
AcDbEntity
  8
OBJECT
100
AcDbLine
 10
5707.788884770784
 20
5591.411747319416
 30
0.0
 11
5707.788884770784
 21
5707.211747319416
 31
0.0
  0
LINE
  5
2C70
330
18
100
AcDbEntity
  8
OBJECT
100
AcDbLine
 10
5705.288884770784
 20
5591.411747319416
 30
0.0
 11
5705.288884770784
 21
5707.211747319416
 31
0.0
  0
LINE
  5
2C71
330
18
100
AcDbEntity
  8
OBJECT
100
AcDbLine
 10
5724.038905402967
 20
5591.411755770815
 30
0.0
 11
5724.038905402967
 21
5707.211755770815
 31
0.0
  0
LINE
  5
2C72
330
18
100
AcDbEntity
  8
OBJECT
100
AcDbLine
 10
5726.538905402967
 20
5591.411755770815
 30
0.0
 11
5726.538905402967
 21
5707.211755770815
 31
0.0
  0
LINE
  5
2C73
330
18
100
AcDbEntity
  8
OBJECT
100
AcDbLine
 10
5764.038946667333
 20
5597.987531626745
 30
0.0
 11
5764.038946667333
 21
5707.211764222216
 31
0.0
  0
LINE
  5
2C74
330
18
100
AcDbEntity
  8
OBJECT
100
AcDbLine
 10
5761.538946667332
 20
5595.487531626744
 30
0.0
 11
5761.538946667332
 21
5707.211764222216
 31
0.0
  0
LINE
  5
2C75
330
18
100
AcDbEntity
  8
OBJECT
100
AcDbLine
 10
5742.788926035149
 20
5591.411755770815
 30
0.0
 11
5742.788926035149
 21
5707.211755770815
 31
0.0
  0
LINE
  5
2C76
330
18
100
AcDbEntity
  8
OBJECT
100
AcDbLine
 10
5745.28892603515
 20
5591.411755770815
 30
0.0
 11
5745.28892603515
 21
5707.211755770815
 31
0.0
  0
LINE
  5
2C77
330
18
100
AcDbEntity
  8
OBJECT
100
AcDbLine
 10
5670.288843506418
 20
5591.411757943442
 30
0.0
 11
5670.288843506418
 21
5707.211757943442
 31
0.0
  0
LINE
  5
2C78
330
18
100
AcDbEntity
  8
OBJECT
100
AcDbLine
 10
5667.788843506418
 20
5591.411757943442
 30
0.0
 11
5667.788843506418
 21
5707.211757943442
 31
0.0
  0
LINE
  5
2C79
330
18
100
AcDbEntity
  8
OBJECT
100
AcDbLine
 10
5686.538864138601
 20
5591.411766394841
 30
0.0
 11
5686.538864138601
 21
5707.211766394841
 31
0.0
  0
LINE
  5
2C7A
330
18
100
AcDbEntity
  8
OBJECT
100
AcDbLine
 10
5689.038864138601
 20
5591.411766394841
 30
0.0
 11
5689.038864138601
 21
5707.211766394841
 31
0.0
  0
LINE
  5
2C7B
330
18
100
AcDbEntity
  8
OBJECT
100
AcDbLine
 10
5651.538822874235
 20
5591.411757943442
 30
0.0
 11
5651.538822874235
 21
5707.211757943442
 31
0.0
  0
LINE
  5
2C7C
330
18
100
AcDbEntity
  8
OBJECT
100
AcDbLine
 10
5649.038822874235
 20
5591.411757943442
 30
0.0
 11
5649.038822874235
 21
5707.211757943442
 31
0.0
  0
LINE
  5
2C7D
330
18
100
AcDbEntity
  8
OBJECT
100
AcDbLine
 10
5630.288802242052
 20
5591.411749492041
 30
0.0
 11
5630.288802242052
 21
5707.211749492042
 31
0.0
  0
LINE
  5
2C7E
330
18
100
AcDbEntity
  8
OBJECT
100
AcDbLine
 10
5632.788802242052
 20
5591.411749492041
 30
0.0
 11
5632.788802242052
 21
5707.211749492042
 31
0.0
  0
LINE
  5
2C7F
330
18
100
AcDbEntity
  8
OBJECT
100
AcDbLine
 10
5557.788719713321
 20
5591.411747319416
 30
0.0
 11
5557.788719713321
 21
5707.211747319416
 31
0.0
  0
LINE
  5
2C80
330
18
100
AcDbEntity
  8
OBJECT
100
AcDbLine
 10
5555.28871971332
 20
5591.411747319416
 30
0.0
 11
5555.28871971332
 21
5707.211747319416
 31
0.0
  0
LINE
  5
2C81
330
18
100
AcDbEntity
  8
OBJECT
100
AcDbLine
 10
5651.538822874235
 20
5585.411779191495
 30
0.0
 11
5651.538822874235
 21
5485.487407833647
 31
0.0
  0
LINE
  5
2C82
330
18
100
AcDbEntity
  8
OBJECT
100
AcDbLine
 10
5689.038864138601
 20
5585.411770740096
 30
0.0
 11
5689.038864138601
 21
5522.987449098013
 31
0.0
  0
LINE
  5
2C83
330
18
100
AcDbEntity
  8
OBJECT
100
AcDbLine
 10
5686.538864138601
 20
5585.411770740096
 30
0.0
 11
5686.538864138601
 21
5520.487449098013
 31
0.0
  0
LINE
  5
2C84
330
18
100
AcDbEntity
  8
OBJECT
100
AcDbLine
 10
5667.788843506418
 20
5585.411779191495
 30
0.0
 11
5667.788843506418
 21
5501.73742846583
 31
0.0
  0
LINE
  5
2C85
330
18
100
AcDbEntity
  8
OBJECT
100
AcDbLine
 10
5670.288843506418
 20
5585.411779191495
 30
0.0
 11
5670.288843506418
 21
5504.23742846583
 31
0.0
  0
LINE
  5
2C86
330
18
100
AcDbEntity
  8
OBJECT
100
AcDbLine
 10
5726.538905402967
 20
5585.411781364122
 30
0.0
 11
5726.538905402967
 21
5560.487490362379
 31
0.0
  0
LINE
  5
2C87
330
18
100
AcDbEntity
  8
OBJECT
100
AcDbLine
 10
5724.038905402967
 20
5585.411781364122
 30
0.0
 11
5724.038905402967
 21
5557.987490362378
 31
0.0
  0
LINE
  5
2C88
330
18
100
AcDbEntity
  8
OBJECT
100
AcDbLine
 10
5705.288884770784
 20
5585.411789815521
 30
0.0
 11
5705.288884770784
 21
5539.237469730196
 31
0.0
  0
LINE
  5
2C89
330
18
100
AcDbEntity
  8
OBJECT
100
AcDbLine
 10
5707.788884770784
 20
5585.411789815521
 30
0.0
 11
5707.788884770784
 21
5541.737469730196
 31
0.0
  0
LINE
  5
2C8A
330
18
100
AcDbEntity
  8
OBJECT
100
AcDbLine
 10
5555.28871971332
 20
5585.411789815521
 30
0.0
 11
5555.28871971332
 21
5469.61178981552
 31
0.0
  0
LINE
  5
2C8B
330
18
100
AcDbEntity
  8
OBJECT
100
AcDbLine
 10
5557.788719713321
 20
5585.411789815521
 30
0.0
 11
5557.788719713321
 21
5469.61178981552
 31
0.0
  0
LINE
  5
2C8C
330
18
100
AcDbEntity
  8
OBJECT
100
AcDbLine
 10
5632.788802242052
 20
5585.411787642896
 30
0.0
 11
5632.788802242052
 21
5469.611787642894
 31
0.0
  0
LINE
  5
2C8D
330
18
100
AcDbEntity
  8
OBJECT
100
AcDbLine
 10
5630.288802242052
 20
5585.411787642896
 30
0.0
 11
5630.288802242052
 21
5469.611787642894
 31
0.0
  0
LINE
  5
2C8E
330
18
100
AcDbEntity
  8
OBJECT
100
AcDbLine
 10
5649.038822874235
 20
5585.411779191495
 30
0.0
 11
5649.038822874235
 21
5482.987407833647
 31
0.0
  0
LINE
  5
2C8F
330
18
100
AcDbEntity
  8
OBJECT
100
AcDbLine
 10
5595.288760977687
 20
5585.411781364122
 30
0.0
 11
5595.288760977687
 21
5469.611781364122
 31
0.0
  0
LINE
  5
2C90
330
18
100
AcDbEntity
  8
OBJECT
100
AcDbLine
 10
5592.788760977686
 20
5585.411781364122
 30
0.0
 11
5592.788760977686
 21
5469.611781364122
 31
0.0
  0
LINE
  5
2C91
330
18
100
AcDbEntity
  8
OBJECT
100
AcDbLine
 10
5611.538781609869
 20
5585.411772912721
 30
0.0
 11
5611.538781609869
 21
5469.61177291272
 31
0.0
  0
LINE
  5
2C92
330
18
100
AcDbEntity
  8
OBJECT
100
AcDbLine
 10
5614.03878160987
 20
5585.411772912721
 30
0.0
 11
5614.03878160987
 21
5469.61177291272
 31
0.0
  0
LINE
  5
2C93
330
18
100
AcDbEntity
  8
OBJECT
100
AcDbLine
 10
5576.538740345504
 20
5585.411781364122
 30
0.0
 11
5576.538740345504
 21
5469.611781364122
 31
0.0
  0
LINE
  5
2C94
330
18
100
AcDbEntity
  8
OBJECT
100
AcDbLine
 10
5574.038740345503
 20
5585.411781364122
 30
0.0
 11
5574.038740345503
 21
5469.611781364122
 31
0.0
  0
LINE
  5
2C9F
330
18
100
AcDbEntity
  8
OBJECT
100
AcDbLine
 10
5745.28892603515
 20
5585.411781364122
 30
0.0
 11
5745.28892603515
 21
5579.237510994562
 31
0.0
  0
LINE
  5
2CA0
330
18
100
AcDbEntity
  8
OBJECT
100
AcDbLine
 10
5742.788926035149
 20
5585.411781364122
 30
0.0
 11
5742.788926035149
 21
5576.737510994561
 31
0.0
  0
LINE
  5
2DE9
330
18
100
AcDbEntity
  8
OBJECT
100
AcDbLine
 10
5984.263183608056
 20
5018.211768567468
 30
0.0
 11
5984.263183608056
 21
5818.211768567468
 31
0.0
  0
LINE
  5
2DEB
102
{ACAD_REACTORS
330
2EB2
102
}
330
18
100
AcDbEntity
  8
OBJECT
100
AcDbLine
 10
5884.263183608055
 20
5118.211768567467
 30
0.0
 11
5884.263183608055
 21
5718.211768567467
 31
0.0
  0
LINE
  5
2DEC
102
{ACAD_REACTORS
330
2EB2
102
}
330
18
100
AcDbEntity
  8
OBJECT
100
AcDbLine
 10
5834.263183608055
 20
5168.211768567467
 30
0.0
 11
5834.263183608055
 21
5668.211768567467
 31
0.0
  0
LINE
  5
2DED
330
18
100
AcDbEntity
  8
点線
100
AcDbLine
 10
5284.263183608056
 20
4668.211768567467
 30
0.0
 11
5884.263183608055
 21
4668.211768567467
 31
0.0
  0
LINE
  5
2DEE
330
18
100
AcDbEntity
  8
OBJECT
100
AcDbLine
 10
5984.263183608056
 20
4718.211768567467
 30
0.0
 11
5184.263183608056
 21
4718.211768567467
 31
0.0
  0
LINE
  5
2DEF
330
18
100
AcDbEntity
  8
OBJECT
100
AcDbLine
 10
5184.263183608056
 20
3718.211768567467
 30
0.0
 11
5984.263183608056
 21
3718.211768567467
 31
0.0
  0
LINE
  5
2DF0
330
18
100
AcDbEntity
  8
OBJECT
100
AcDbLine
 10
5184.263183608056
 20
5018.211768567468
 30
0.0
 11
5984.263183608056
 21
5018.211768567468
 31
0.0
  0
LINE
  5
2DF1
102
{ACAD_REACTORS
330
2EB2
102
}
330
18
100
AcDbEntity
  8
OBJECT
100
AcDbLine
 10
5284.263183608056
 20
5118.211768567467
 30
0.0
 11
5884.263183608055
 21
5118.211768567467
 31
0.0
  0
LINE
  5
2DF2
102
{ACAD_REACTORS
330
2EB2
102
}
330
18
100
AcDbEntity
  8
OBJECT
100
AcDbLine
 10
5334.263183608055
 20
5168.211768567467
 30
0.0
 11
5834.263183608055
 21
5168.211768567467
 31
0.0
  0
LINE
  5
2DF4
330
18
100
AcDbEntity
  8
点線
100
AcDbLine
 10
5334.263183608055
 20
4668.211768567467
 30
0.0
 11
5334.263183608055
 21
3718.211768567467
 31
0.0
  0
LINE
  5
2DF5
330
18
100
AcDbEntity
  8
OBJECT
100
AcDbLine
 10
5184.263183608056
 20
4718.211768567467
 30
0.0
 11
5184.263183608056
 21
3718.211768567467
 31
0.0
  0
LINE
  5
2DF9
330
18
100
AcDbEntity
  8
点線
100
AcDbLine
 10
5284.263183608056
 20
4718.211768567467
 30
0.0
 11
5284.263183608056
 21
4668.211768567467
 31
0.0
  0
LINE
  5
2E02
102
{ACAD_REACTORS
330
2EB2
102
}
330
18
100
AcDbEntity
  8
OBJECT
100
AcDbLine
 10
5334.263183608055
 20
5168.211768567467
 30
0.0
 11
5284.263183608056
 21
5118.211768567467
 31
0.0
  0
LINE
  5
2E07
330
18
100
AcDbEntity
  8
点線
100
AcDbLine
 10
5834.263183608055
 20
4668.211768567467
 30
0.0
 11
5834.263183608055
 21
3718.211768567467
 31
0.0
  0
LINE
  5
2E08
330
18
100
AcDbEntity
  8
OBJECT
100
AcDbLine
 10
5984.263183608056
 20
3718.211768567467
 30
0.0
 11
5984.263183608056
 21
4718.211768567467
 31
0.0
  0
LINE
  5
2E0B
330
18
100
AcDbEntity
  8
点線
100
AcDbLine
 10
5884.263183608055
 20
4668.211768567467
 30
0.0
 11
5884.263183608055
 21
4718.211768567467
 31
0.0
  0
LINE
  5
2E1B
330
18
100
AcDbEntity
  8
OBJECT
100
AcDbLine
 10
5984.263183608056
 20
5818.211768567468
 30
0.0
 11
5184.263183608056
 21
5818.211768567468
 31
0.0
  0
LINE
  5
2E9C
102
{ACAD_REACTORS
330
2EB2
102
}
330
18
100
AcDbEntity
  8
OBJECT
100
AcDbLine
 10
5884.263183608055
 20
5718.211768567467
 30
0.0
 11
5834.263183608055
 21
5668.211768567467
 31
0.0
  0
LINE
  5
2EB1
330
18
100
AcDbEntity
  8
OBJECT
100
AcDbLine
 10
5184.263183608056
 20
5018.211768567468
 30
0.0
 11
5184.263183608056
 21
5818.211768567468
 31
0.0
  0
HATCH
  5
2EB2
330
18
100
AcDbEntity
  8
OBJECT
100
AcDbHatch
 10
0.0
 20
0.0
 30
0.0
210
0.0
220
0.0
230
1.0
  2
AR-SAND
 70
     0
 71
     1
 91
        1
 92
        1
 93
        6
 72
     1
 10
5884.263183608055
 20
5718.211768567467
 11
5834.263183608055
 21
5668.211768567467
 72
     1
 10
5834.263183608055
 20
5668.211768567467
 11
5834.263183608055
 21
5168.211768567467
 72
     1
 10
5834.263183608055
 20
5168.211768567467
 11
5334.263183608055
 21
5168.211768567467
 72
     1
 10
5334.263183608055
 20
5168.211768567467
 11
5284.263183608056
 21
5118.211768567467
 72
     1
 10
5284.263183608056
 20
5118.211768567467
 11
5884.263183608055
 21
5118.211768567467
 72
     1
 10
5884.263183608055
 20
5118.211768567467
 11
5884.263183608055
 21
5718.211768567467
 97
        6
330
2E9C
330
2DEC
330
2DF2
330
2E02
330
2DF1
330
2DEB
 75
     0
 76
     1
 52
0.0
 41
1.0
 77
     0
 78
     4
 53
37.5
 43
10251.5249812441
 44
908.4385693903787
 45
-1.600031295984045
 46
48.94132373293423
 79
     6
 49
0.0
 49
-38.608
 49
0.0
 49
-43.18
 49
0.0
 49
-41.275
 53
7.499999999999999
 43
10251.5249812441
 44
908.4385693903787
 45
44.95232831380026
 46
71.68251005683543
 79
     6
 49
0.0
 49
-20.828
 49
0.0
 49
-34.798
 49
0.0
 49
-13.335
 53
327.4999999999999
 43
10220.2829812441
 44
908.4385693903787
 45
79.09923702414579
 46
0.1437184678545691
 79
     6
 49
0.0
 49
-12.7
 49
0.0
 49
-45.72
 49
0.0
 49
-59.69
 53
317.5
 43
10220.2829812441
 44
908.4385693903787
 45
76.35564524722972
 46
22.29293232572162
 79
     6
 49
0.0
 49
-6.349999999999999
 49
0.0
 49
-29.97199999999999
 49
0.0
 49
-34.29
 98
        1
 10
10251.5249812441
 20
908.4385693903787
  0
LINE
  5
2EBA
330
18
100
AcDbEntity
  8
OBJECT
100
AcDbLine
 10
7084.263183608055
 20
4718.211768567467
 30
0.0
 11
7084.263183608055
 21
3718.211768567467
 31
0.0
  0
LINE
  5
2EBB
330
18
100
AcDbEntity
  8
点線
100
AcDbLine
 10
6934.263183608056
 20
4668.211768567467
 30
0.0
 11
6934.263183608056
 21
3718.211768567467
 31
0.0
  0
LINE
  5
2EBC
330
18
100
AcDbEntity
  8
点線
100
AcDbLine
 10
6434.263183608056
 20
4668.211768567467
 30
0.0
 11
6434.263183608056
 21
3718.211768567467
 31
0.0
  0
LINE
  5
2EBD
330
18
100
AcDbEntity
  8
OBJECT
100
AcDbLine
 10
6284.263183608056
 20
3718.211768567467
 30
0.0
 11
6284.263183608056
 21
4718.211768567467
 31
0.0
  0
LINE
  5
2EBE
330
18
100
AcDbEntity
  8
OBJECT
100
AcDbLine
 10
7084.263183608055
 20
3718.211768567467
 30
0.0
 11
6284.263183608056
 21
3718.211768567467
 31
0.0
  0
LINE
  5
2EBF
330
18
100
AcDbEntity
  8
OBJECT
100
AcDbLine
 10
6284.263183608056
 20
4718.211768567467
 30
0.0
 11
7084.263183608055
 21
4718.211768567467
 31
0.0
  0
LINE
  5
2EC0
330
18
100
AcDbEntity
  8
点線
100
AcDbLine
 10
6984.263183608056
 20
4668.211768567467
 30
0.0
 11
6384.263183608055
 21
4668.211768567467
 31
0.0
  0
LINE
  5
2EC1
330
18
100
AcDbEntity
  8
点線
100
AcDbLine
 10
6984.263183608056
 20
4718.211768567467
 30
0.0
 11
6984.263183608056
 21
4668.211768567467
 31
0.0
  0
LINE
  5
2EC2
330
18
100
AcDbEntity
  8
点線
100
AcDbLine
 10
6384.263183608055
 20
4668.211768567467
 30
0.0
 11
6384.263183608055
 21
4718.211768567467
 31
0.0
  0
MTEXT
  5
2F08
330
18
100
AcDbEntity
  8
上書線
100
AcDbMText
 10
8240.356828745246
 20
4931.505467277834
 30
0.0
 40
50.0
 41
1096.913
 71
     1
 72
     5
  1
1009
 73
     1
 44
1.0
  0
MTEXT
  5
2F09
330
18
100
AcDbEntity
  8
上書線
100
AcDbMText
 10
8240.356828745246
 20
4831.505467277835
 30
0.0
 40
50.0
 41
1096.913
 71
     1
 72
     5
  1
1058
 73
     1
 44
1.0
  0
MTEXT
  5
2F0A
330
18
100
AcDbEntity
  8
上書線
100
AcDbMText
 10
8240.356828745246
 20
4731.505467277834
 30
0.0
 40
50.0
 41
1096.913
 71
     1
 72
     5
  1
1107
 73
     1
 44
1.0
  0
MTEXT
  5
2F0B
330
18
100
AcDbEntity
  8
上書線
100
AcDbMText
 10
8240.356828745246
 20
4631.505467277834
 30
0.0
 40
50.0
 41
1096.913
 71
     1
 72
     5
  1
1156
 73
     1
 44
1.0
  0
LINE
  5
3045
330
18
100
AcDbEntity
  8
WUWAGAKI
100
AcDbLine
 10
4572.136906432307
 20
3453.518353705816
 30
0.0
 11
8842.855825059224
 21
3453.518353705816
 31
0.0
  0
LINE
  5
3046
330
18
100
AcDbEntity
  8
WUWAGAKI
100
AcDbLine
 10
8842.855825059224
 20
6379.668205501939
 30
0.0
 11
4572.136906432307
 21
6379.668205501939
 31
0.0
  0
LINE
  5
304C
330
18
100
AcDbEntity
  8
WUWAGAKI
100
AcDbLine
 10
4572.136906432307
 20
6379.668205501939
 30
0.0
 11
4572.136906432307
 21
3453.518353705816
 31
0.0
  0
LINE
  5
3061
330
18
100
AcDbEntity
  8
OBJECT
 48
10.0
100
AcDbLine
 10
4854.263192371477
 20
4718.211768567467
 30
0.0
 11
4854.263192371474
 21
3718.211768567467
 31
0.0
  0
LINE
  5
3064
330
18
100
AcDbEntity
  8
0
 48
10.0
100
AcDbLine
 10
5154.263183608055
 20
3718.211768567467
 30
0.0
 11
4824.263183608056
 21
3718.211768567467
 31
0.0
  0
SOLID
  5
3065
330
18
100
AcDbEntity
  8
0
  6
ByBlock
 62
     0
 48
10.0
100
AcDbTrace
 10
4860.513183608055
 20
3755.711768567487
 30
0.0
 11
4848.013183608053
 21
3755.711768567487
 31
0.0
 12
4854.263183608053
 22
3718.211768567487
 32
0.0
 13
4854.263183608053
 23
3718.211768567487
 33
0.0
  0
SOLID
  5
3066
330
18
100
AcDbEntity
  8
0
  6
ByBlock
 62
     0
 48
10.0
100
AcDbTrace
 10
4860.513183608055
 20
4680.711768567443
 30
0.0
 11
4848.013183608053
 21
4680.711768567443
 31
0.0
 12
4854.263183608053
 22
4718.211768567444
 32
0.0
 13
4854.263183608053
 23
4718.211768567444
 33
0.0
  0
MTEXT
  5
3068
330
18
100
AcDbEntity
  8
0
  6
ByBlock
 62
     0
 48
10.0
100
AcDbMText
 10
4824.263183608056
 20
4218.211768567467
 30
0.0
 40
37.5
 41
0.0
 71
     5
 72
     1
  1
H
 11
0.0000000000000001
 21
1.0
 31
0.0
 73
     1
 44
1.0
  0
LINE
  5
306D
330
18
100
AcDbEntity
  8
0
 48
10.0
100
AcDbLine
 10
5154.263183608055
 20
4718.211768567467
 30
0.0
 11
4824.263183608056
 21
4718.211768567467
 31
0.0
  0
LINE
  5
3076
330
18
100
AcDbEntity
  8
OBJECT
 48
10.0
100
AcDbLine
 10
6119.312996002336
 20
5018.211768567468
 30
0.0
 11
6224.312996002336
 21
5018.211768567468
 31
0.0
  0
LINE
  5
3078
330
18
100
AcDbEntity
  8
WUWAGAKI
 48
10.0
100
AcDbLine
 10
5901.51664355841
 20
5110.871426631187
 30
0.0
 11
6119.312996002336
 21
5018.211768567468
 31
0.0
210
0.0
220
0.0
230
-1.0
1001
ACAD
1000
DSTYLE
1002
{
1070
    78
1070
     8
1070
   270
1070
     8
1070
   140
1040
2.5
1070
    74
1070
     0
1070
   172
1070
     1
1070
    73
1070
     0
1070
    77
1070
     1
1070
    40
1040
10.0
1070
   147
1040
0.625
1070
    42
1040
0.625
1070
    44
1040
1.25
1070
    43
1040
3.75
1070
   141
1040
2.5
1070
    41
1040
2.5
1070
   273
1070
     8
1070
   274
1070
     4
1070
   143
1040
0.0394
1070
   171
1070
     4
1002
}
  0
SOLID
  5
3079
330
18
100
AcDbEntity
  8
0
  6
ByBlock
 62
     0
 48
10.0
100
AcDbTrace
 10
5921.171381773874
 20
5109.095990588997
 30
0.0
 11
5916.219875501623
 21
5097.618508912436
 31
0.0
 12
5884.263183608055
 22
5118.211768567467
 32
0.0
 13
5884.263183608055
 23
5118.211768567467
 33
0.0
  0
MTEXT
  5
307A
330
18
100
AcDbEntity
  8
0
  6
ByBlock
 62
     0
 48
10.0
100
AcDbMText
 10
6171.812996002337
 20
5048.211768567467
 30
0.0
 40
30.0
 41
0.0
 71
     5
 72
     1
  1
受枠
 73
     1
 44
1.0
  0
LINE
  5
307E
330
18
100
AcDbEntity
  8
OBJECT
 48
10.0
100
AcDbLine
 10
5984.263183608056
 20
6148.211759804046
 30
0.0
 11
5184.263183608056
 21
6148.211759804048
 31
0.0
  0
LINE
  5
307F
330
18
100
AcDbEntity
  8
OBJECT
 48
10.0
100
AcDbLine
 10
5184.263183608056
 20
5998.211757827519
 30
0.0
 11
5984.263183608056
 21
5998.211757827519
 31
0.0
  0
MTEXT
  5
30B0
330
18
100
AcDbEntity
  8
0
  6
ByBlock
 62
     0
 48
10.0
100
AcDbMText
 10
5259.263183608055
 20
6028.211759804047
 30
0.0
 40
37.5
 41
0.0
 71
     5
 72
     1
  1
150
 73
     1
 44
1.0
  0
LINE
  5
30B1
330
18
100
AcDbEntity
  8
0
 48
10.0
100
AcDbLine
 10
5184.263183608056
 20
5848.211768567467
 30
0.0
 11
5184.263183608056
 21
6178.211768567468
 31
0.0
  0
SOLID
  5
30B2
330
18
100
AcDbEntity
  8
0
  6
ByBlock
 62
     0
 48
10.0
100
AcDbTrace
 10
5221.76319546721
 20
5991.96175782752
 30
0.0
 11
5221.76319546721
 21
6004.461757827521
 31
0.0
 12
5184.26319546721
 22
5998.211757827522
 32
0.0
 13
5184.26319546721
 23
5998.211757827522
 33
0.0
  0
LINE
  5
30B3
330
18
100
AcDbEntity
  8
0
 48
10.0
100
AcDbLine
 10
5334.263183608055
 20
5848.211768567467
 30
0.0
 11
5334.263183608055
 21
6028.211768567468
 31
0.0
  0
SOLID
  5
30B4
330
18
100
AcDbEntity
  8
0
  6
ByBlock
 62
     0
 48
10.0
100
AcDbTrace
 10
5371.763183608056
 20
5991.961768567466
 30
0.0
 11
5371.763183608056
 21
6004.461768567466
 31
0.0
 12
5334.263183608055
 22
5998.211768567467
 32
0.0
 13
5334.263183608055
 23
5998.211768567467
 33
0.0
  0
SOLID
  5
30B5
330
18
100
AcDbEntity
  8
0
  6
ByBlock
 62
     0
 48
10.0
100
AcDbTrace
 10
5296.763183608056
 20
5991.961768567466
 30
0.0
 11
5296.763183608056
 21
6004.461768567466
 31
0.0
 12
5334.263183608055
 22
5998.211768567467
 32
0.0
 13
5334.263183608055
 23
5998.211768567467
 33
0.0
  0
SOLID
  5
30B6
330
18
100
AcDbEntity
  8
0
  6
ByBlock
 62
     0
 48
10.0
100
AcDbTrace
 10
5221.763183608078
 20
6141.961768567469
 30
0.0
 11
5221.763183608078
 21
6154.46176856747
 31
0.0
 12
5184.263183608077
 22
6148.211768567471
 32
0.0
 13
5184.263183608077
 23
6148.211768567471
 33
0.0
  0
MTEXT
  5
30B7
330
18
100
AcDbEntity
  8
0
  6
ByBlock
 62
     0
 48
10.0
100
AcDbMText
 10
6236.812996002337
 20
5258.913106157454
 30
0.0
 40
30.0
 41
0.0
 71
     5
 72
     1
  1
グレーチング
 73
     1
 44
1.0
  0
LINE
  5
30B8
330
18
100
AcDbEntity
  8
OBJECT
 48
10.0
100
AcDbLine
 10
6119.312996002336
 20
5228.913106157453
 30
0.0
 11
6364.312996002336
 21
5228.913106157453
 31
0.0
  0
LINE
  5
30B9
330
18
100
AcDbEntity
  8
WUWAGAKI
 48
10.0
100
AcDbLine
 10
5611.155800228505
 20
5445.104385187917
 30
0.0
 11
6119.312996002337
 21
5228.913106157453
 31
0.0
210
0.0
220
0.0
230
-1.0
1001
ACAD
1000
DSTYLE
1002
{
1070
    78
1070
     8
1070
   270
1070
     8
1070
   140
1040
2.5
1070
    74
1070
     0
1070
   172
1070
     1
1070
    73
1070
     0
1070
    77
1070
     1
1070
    40
1040
10.0
1070
   147
1040
0.625
1070
    42
1040
0.625
1070
    44
1040
1.25
1070
    43
1040
3.75
1070
   141
1040
2.5
1070
    41
1040
2.5
1070
   273
1070
     8
1070
   274
1070
     4
1070
   143
1040
0.0394
1070
   171
1070
     4
1002
}
  0
SOLID
  5
30E6
330
18
100
AcDbEntity
  8
0
  6
ByBlock
 62
     0
 48
10.0
100
AcDbTrace
 10
5648.063998394324
 20
5435.988607209447
 30
0.0
 11
5643.112492122073
 21
5424.511125532885
 31
0.0
 12
5611.155800228505
 22
5445.104385187917
 32
0.0
 13
5611.155800228505
 23
5445.104385187917
 33
0.0
  0
SOLID
  5
3115
330
18
100
AcDbEntity
  8
0
  6
ByBlock
 62
     0
 48
10.0
100
AcDbTrace
 10
5871.763183608059
 20
5991.961768567466
 30
0.0
 11
5871.763183608059
 21
6004.461768567466
 31
0.0
 12
5834.263183608058
 22
5998.211768567467
 32
0.0
 13
5834.263183608058
 23
5998.211768567467
 33
0.0
  0
MTEXT
  5
3116
330
18
100
AcDbEntity
  8
0
  6
ByBlock
 62
     0
 48
10.0
100
AcDbMText
 10
5584.263183608055
 20
6028.211768567468
 30
0.0
 40
37.5
 41
0.0
 71
     5
 72
     1
  1
500
 73
     1
 44
1.0
  0
LINE
  5
3117
330
18
100
AcDbEntity
  8
0
 48
10.0
100
AcDbLine
 10
5834.263183608055
 20
5848.211768567467
 30
0.0
 11
5834.263183608055
 21
6028.211768567468
 31
0.0
  0
SOLID
  5
3118
330
18
100
AcDbEntity
  8
0
  6
ByBlock
 62
     0
 48
10.0
100
AcDbTrace
 10
5796.76324804775
 20
5991.961768567466
 30
0.0
 11
5796.76324804775
 21
6004.461768567466
 31
0.0
 12
5834.263248047751
 22
5998.211768567467
 32
0.0
 13
5834.263248047751
 23
5998.211768567467
 33
0.0
  0
MTEXT
  5
3119
330
18
100
AcDbEntity
  8
0
  6
ByBlock
 62
     0
 48
10.0
100
AcDbMText
 10
5584.263183608055
 20
6178.211768567468
 30
0.0
 40
37.5
 41
0.0
 71
     5
 72
     1
  1
800
 73
     1
 44
1.0
  0
MTEXT
  5
311A
330
18
100
AcDbEntity
  8
0
  6
ByBlock
 62
     0
 48
10.0
100
AcDbMText
 10
5909.263183608056
 20
6028.211759804047
 30
0.0
 40
37.5
 41
0.0
 71
     5
 72
     1
  1
150
 73
     1
 44
1.0
  0
LINE
  5
311B
330
18
100
AcDbEntity
  8
0
 48
10.0
100
AcDbLine
 10
5984.263183608056
 20
5848.211768567467
 30
0.0
 11
5984.263183608056
 21
6178.211768567468
 31
0.0
  0
SOLID
  5
311C
330
18
100
AcDbEntity
  8
0
  6
ByBlock
 62
     0
 48
10.0
100
AcDbTrace
 10
5946.763171748902
 20
5991.96175782752
 30
0.0
 11
5946.763171748902
 21
6004.461757827521
 31
0.0
 12
5984.263171748901
 22
5998.211757827522
 32
0.0
 13
5984.263171748901
 23
5998.211757827522
 33
0.0
  0
SOLID
  5
311D
330
18
100
AcDbEntity
  8
0
  6
ByBlock
 62
     0
 48
10.0
100
AcDbTrace
 10
5946.763183608034
 20
6141.961768567469
 30
0.0
 11
5946.763183608034
 21
6154.46176856747
 31
0.0
 12
5984.263183608033
 22
6148.211768567471
 32
0.0
 13
5984.263183608033
 23
6148.211768567471
 33
0.0
  0
LINE
  5
311E
330
18
100
AcDbEntity
  8
WUWAGAKI
100
AcDbLine
 10
8842.855825059224
 20
3453.518353705816
 30
0.0
 11
8842.855825059224
 21
6379.668205501939
 31
0.0
  0
TEXT
  5
3124
330
18
100
AcDbEntity
  8
WUWAGAKI
100
AcDbText
 10
7990.009112082184
 20
3774.132725627846
 30
0.0
 40
47.25
  1
500×500×150/150×H
100
AcDbText
  0
LINE
  5
3125
330
18
100
AcDbEntity
  8
WUWAGAKI
100
AcDbLine
 10
7683.556237150845
 20
3653.046583702829
 30
0.0
 11
8776.352812251266
 21
3653.046583702829
 31
0.0
  0
LINE
  5
3126
330
18
100
AcDbEntity
  8
WUWAGAKI
100
AcDbLine
 10
7683.556237150845
 20
3751.561647867435
 30
0.0
 11
8776.352812251266
 21
3751.561647867435
 31
0.0
  0
LINE
  5
3127
330
18
100
AcDbEntity
  8
WUWAGAKI
100
AcDbLine
 10
7683.556237150845
 20
3522.017888147618
 30
0.0
 11
8776.352812251269
 21
3522.017888147618
 31
0.0
  0
LINE
  5
3128
330
18
100
AcDbEntity
  8
WUWAGAKI
100
AcDbLine
 10
7683.556237150845
 20
3847.46803283205
 30
0.0
 11
8773.720989915506
 21
3847.46803283205
 31
0.0
  0
LINE
  5
3129
330
18
100
AcDbEntity
  8
WUWAGAKI
100
AcDbLine
 10
7683.556237150845
 20
3847.46803283205
 30
0.0
 11
8773.720989915506
 21
3847.46803283205
 31
0.0
  0
LINE
  5
312A
330
18
100
AcDbEntity
  8
WUWAGAKI
100
AcDbLine
 10
7683.556237150845
 20
3941.998320777187
 30
0.0
 11
8776.352812251269
 21
3941.998320777187
 31
0.0
  0
TEXT
  5
312E
330
18
100
AcDbEntity
  8
WUWAGAKI
100
AcDbText
 10
7728.434680913126
 20
3772.615080012584
 30
0.0
 40
45.0
  1
寸　法
100
AcDbText
  0
TEXT
  5
312F
330
18
100
AcDbEntity
  8
WUWAGAKI
100
AcDbText
 10
7756.082438674209
 20
3676.117127021103
 30
0.0
 40
45.0
  1
縮尺
100
AcDbText
  0
TEXT
  5
3130
330
18
100
AcDbEntity
  8
WUWAGAKI
100
AcDbText
 10
7731.089892799547
 20
3873.753920049566
 30
0.0
 40
45.0
  1
種　別
100
AcDbText
  0
LINE
  5
3132
330
18
100
AcDbEntity
  8
WUWAGAKI
100
AcDbLine
 10
7683.556237150845
 20
3941.998320777187
 30
0.0
 11
7683.556237150845
 21
3522.017888147618
 31
0.0
  0
LINE
  5
3133
330
18
100
AcDbEntity
  8
WUWAGAKI
100
AcDbLine
 10
8514.070621665581
 20
3751.561647867435
 30
0.0
 11
8514.070621665581
 21
3653.046583702829
 31
0.0
  0
LINE
  5
3134
330
18
100
AcDbEntity
  8
WUWAGAKI
100
AcDbLine
 10
8329.842194903264
 20
3751.561647867435
 30
0.0
 11
8329.842194903264
 21
3653.046583702829
 31
0.0
  0
TEXT
  5
3135
330
18
100
AcDbEntity
  8
WUWAGAKI
100
AcDbText
 10
8356.769970655408
 20
3677.468479962101
 30
0.0
 40
45.0
  1
重量
100
AcDbText
  0
TEXT
  5
3136
330
18
100
AcDbEntity
  8
WUWAGAKI
100
AcDbText
 10
7990.009112082184
 20
3677.41904245056
 30
0.0
 40
45.0
  1
S＝　1：15
100
AcDbText
  0
LINE
  5
3137
330
18
100
AcDbEntity
  8
WUWAGAKI
100
AcDbLine
 10
7935.672708719353
 20
3941.998320777187
 30
0.0
 11
7935.672708719353
 21
3653.046583702829
 31
0.0
  0
TEXT
  5
3138
330
18
100
AcDbEntity
  8
WUWAGAKI
100
AcDbText
 10
7922.261670050321
 20
3553.625454954004
 30
0.0
 40
60.0
  1
㈱　ウ　チ　コ　ン
100
AcDbText
  0
TEXT
  5
3139
330
18
100
AcDbEntity
  8
WUWAGAKI
100
AcDbText
 10
7990.009112082184
 20
3871.174759853506
 30
0.0
 40
45.0
  1
集水桝
100
AcDbText
  0
LINE
  5
3156
330
18
100
AcDbEntity
  8
WUWAGAKI
100
AcDbLine
 10
8776.352812251269
 20
3522.017888147618
 30
0.0
 11
8776.352812251269
 21
3941.998320777187
 31
0.0
  0
LINE
  5
3188
330
18
100
AcDbEntity
  8
OBJECT
 48
10.0
100
AcDbLine
 10
5004.263194348005
 20
5018.211768567468
 30
0.0
 11
5004.263194348005
 21
5818.211768567468
 31
0.0
  0
LINE
  5
3189
330
18
100
AcDbEntity
  8
OBJECT
 48
10.0
100
AcDbLine
 10
4854.263192371477
 20
5818.211768567468
 30
0.0
 11
4854.263192371475
 21
5018.211768567468
 31
0.0
  0
MTEXT
  5
318A
330
18
100
AcDbEntity
  8
0
  6
ByBlock
 62
     0
 48
10.0
100
AcDbMText
 10
4974.263192371475
 20
5093.211768567467
 30
0.0
 40
37.5
 41
0.0
 71
     5
 72
     1
  1
150
 11
0.0000000000000001
 21
1.0
 31
0.0
 73
     1
 44
1.0
  0
LINE
  5
318B
330
18
100
AcDbEntity
  8
0
 48
10.0
100
AcDbLine
 10
5154.263183608055
 20
5018.211768567468
 30
0.0
 11
4824.263183608056
 21
5018.211768567468
 31
0.0
  0
SOLID
  5
318C
330
18
100
AcDbEntity
  8
0
  6
ByBlock
 62
     0
 48
10.0
100
AcDbTrace
 10
5010.513194348003
 20
5055.711780426622
 30
0.0
 11
4998.013194348001
 21
5055.711780426622
 31
0.0
 12
5004.263194348002
 22
5018.211780426621
 32
0.0
 13
5004.263194348002
 23
5018.211780426621
 33
0.0
  0
SOLID
  5
318D
330
18
100
AcDbEntity
  8
0
  6
ByBlock
 62
     0
 48
10.0
100
AcDbTrace
 10
4860.513183608054
 20
5055.71176856749
 30
0.0
 11
4848.013183608053
 21
5055.71176856749
 31
0.0
 12
4854.263183608051
 22
5018.211768567489
 32
0.0
 13
4854.263183608051
 23
5018.211768567489
 33
0.0
  0
LINE
  5
318E
330
18
100
AcDbEntity
  8
0
 48
10.0
100
AcDbLine
 10
5154.263183608055
 20
5168.211768567467
 30
0.0
 11
4974.263183608055
 21
5168.211768567467
 31
0.0
  0
SOLID
  5
318F
330
18
100
AcDbEntity
  8
0
  6
ByBlock
 62
     0
 48
10.0
100
AcDbTrace
 10
5010.513183608058
 20
5130.711768567468
 30
0.0
 11
4998.013183608057
 21
5130.711768567468
 31
0.0
 12
5004.263183608055
 22
5168.211768567467
 32
0.0
 13
5004.263183608055
 23
5168.211768567467
 33
0.0
  0
SOLID
  5
3190
330
18
100
AcDbEntity
  8
0
  6
ByBlock
 62
     0
 48
10.0
100
AcDbTrace
 10
5010.513183608058
 20
5205.711768567468
 30
0.0
 11
4998.013183608057
 21
5205.711768567468
 31
0.0
 12
5004.263183608055
 22
5168.211768567467
 32
0.0
 13
5004.263183608055
 23
5168.211768567467
 33
0.0
  0
MTEXT
  5
3191
330
18
100
AcDbEntity
  8
0
  6
ByBlock
 62
     0
 48
10.0
100
AcDbMText
 10
4974.263183608055
 20
5418.211768567467
 30
0.0
 40
37.5
 41
0.0
 71
     5
 72
     1
  1
500
 11
0.0000000000000001
 21
1.0
 31
0.0
 73
     1
 44
1.0
  0
MTEXT
  5
3192
330
18
100
AcDbEntity
  8
0
  6
ByBlock
 62
     0
 48
10.0
100
AcDbMText
 10
4824.263183608055
 20
5418.211768567467
 30
0.0
 40
37.5
 41
0.0
 71
     5
 72
     1
  1
800
 11
0.0000000000000001
 21
1.0
 31
0.0
 73
     1
 44
1.0
  0
LINE
  5
3193
330
18
100
AcDbEntity
  8
0
 48
10.0
100
AcDbLine
 10
5154.263183608055
 20
5818.211768567468
 30
0.0
 11
4824.263183608056
 21
5818.211768567468
 31
0.0
  0
SOLID
  5
3194
330
18
100
AcDbEntity
  8
0
  6
ByBlock
 62
     0
 48
10.0
100
AcDbTrace
 10
5010.513194348003
 20
5780.711756708313
 30
0.0
 11
4998.013194348001
 21
5780.711756708313
 31
0.0
 12
5004.263194348002
 22
5818.211756708313
 32
0.0
 13
5004.263194348002
 23
5818.211756708313
 33
0.0
  0
LINE
  5
3195
330
18
100
AcDbEntity
  8
0
 48
10.0
100
AcDbLine
 10
5154.263183608055
 20
5668.211768567467
 30
0.0
 11
4974.263183608055
 21
5668.211768567467
 31
0.0
  0
SOLID
  5
3196
330
18
100
AcDbEntity
  8
0
  6
ByBlock
 62
     0
 48
10.0
100
AcDbTrace
 10
5010.513183608058
 20
5705.71176856747
 30
0.0
 11
4998.013183608057
 21
5705.71176856747
 31
0.0
 12
5004.263183608055
 22
5668.21176856747
 32
0.0
 13
5004.263183608055
 23
5668.21176856747
 33
0.0
  0
SOLID
  5
3197
330
18
100
AcDbEntity
  8
0
  6
ByBlock
 62
     0
 48
10.0
100
AcDbTrace
 10
5010.513183608058
 20
5630.711833007162
 30
0.0
 11
4998.013183608057
 21
5630.711833007162
 31
0.0
 12
5004.263183608055
 22
5668.211833007163
 32
0.0
 13
5004.263183608055
 23
5668.211833007163
 33
0.0
  0
MTEXT
  5
3198
330
18
100
AcDbEntity
  8
0
  6
ByBlock
 62
     0
 48
10.0
100
AcDbMText
 10
4974.263192371475
 20
5743.211768567467
 30
0.0
 40
37.5
 41
0.0
 71
     5
 72
     1
  1
150
 11
0.0000000000000001
 21
1.0
 31
0.0
 73
     1
 44
1.0
  0
SOLID
  5
3199
330
18
100
AcDbEntity
  8
0
  6
ByBlock
 62
     0
 48
10.0
100
AcDbTrace
 10
4860.513183608054
 20
5780.711768567446
 30
0.0
 11
4848.013183608053
 21
5780.711768567446
 31
0.0
 12
4854.263183608051
 22
5818.211768567445
 32
0.0
 13
4854.263183608051
 23
5818.211768567445
 33
0.0
  0
VIEWPORT
  5
298
330
15
100
AcDbEntity
 67
     1
  8
0
100
AcDbViewport
 10
291.7632241813602
 20
148.5
 30
0.0
 40
583.5264483627204
 41
297.0
 68
     1
 69
     1
 12
291.7632241813602
 22
148.5
 13
0.0
 23
0.0
 14
10.0
 24
10.0
 15
10.0
 25
10.0
 16
0.0
 26
0.0
 36
1.0
 17
0.0
 27
0.0
 37
0.0
 42
50.0
 43
0.0
 44
0.0
 45
297.0
 50
0.0
 51
0.0
 72
   100
 90
    32800
  1

281
     0
 71
     1
 74
     0
110
0.0
120
0.0
130
0.0
111
1.0
121
0.0
131
0.0
112
0.0
122
1.0
132
0.0
 79
     0
146
0.0
  0
ENDSEC
  0
SECTION
  2
OBJECTS
  0
DICTIONARY
  5
C
330
0
100
AcDbDictionary
281
     1
  3
ACAD_GROUP
350
D
  3
ACAD_LAYOUT
350
15FE
  3
ACAD_MLINESTYLE
350
1B
  3
ACAD_PLOTSETTINGS
350
15FF
  3
ACAD_PLOTSTYLENAME
350
15FC
  3
ACDBVARIABLEDICTIONARY
350
B2A
  3
DRAWINGVARIABLESDICT
350
1212
  0
DICTIONARY
  5
D
102
{ACAD_REACTORS
330
C
102
}
330
C
100
AcDbDictionary
281
     1
  3
*A1
350
1DE1
  3
*A2
350
2483
  3
*A3
350
2486
  3
*A4
350
263D
  0
DICTIONARY
  5
15FE
102
{ACAD_REACTORS
330
C
102
}
330
C
100
AcDbDictionary
281
     1
  3
Model
350
1600
  3
ﾚｲｱｳﾄ1
350
1601
  0
DICTIONARY
  5
1B
102
{ACAD_REACTORS
330
C
102
}
330
C
100
AcDbDictionary
281
     1
  3
STANDARD
350
1C
  0
DICTIONARY
  5
15FF
102
{ACAD_REACTORS
330
C
102
}
330
C
100
AcDbDictionary
281
     1
  0
ACDBDICTIONARYWDFLT
  5
15FC
102
{ACAD_REACTORS
330
C
102
}
330
C
100
AcDbDictionary
281
     1
  3
Normal
350
15FD
100
AcDbDictionaryWithDefault
340
15FD
  0
DICTIONARY
  5
B2A
102
{ACAD_REACTORS
330
C
102
}
330
C
100
AcDbDictionary
281
     1
  3
SORTENTS
350
B2B
  0
DICTIONARY
  5
1212
102
{ACAD_REACTORS
330
C
102
}
330
C
100
AcDbDictionary
281
     1
1001
DRAWINGVARIABLESXDATA
1000
POLARANG
1000
0.785398
1000
POLARMODE
1000
0
  0
GROUP
  5
1DE1
102
{ACAD_REACTORS
330
D
102
}
330
D
100
AcDbGroup
300

 70
     1
 71
     1
  0
GROUP
  5
2483
102
{ACAD_REACTORS
330
D
102
}
330
D
100
AcDbGroup
300

 70
     1
 71
     1
  0
GROUP
  5
2486
102
{ACAD_REACTORS
330
D
102
}
330
D
100
AcDbGroup
300

 70
     1
 71
     1
  0
GROUP
  5
263D
102
{ACAD_REACTORS
330
D
102
}
330
D
100
AcDbGroup
300

 70
     1
 71
     1
340
263B
340
263A
340
263C
  0
LAYOUT
  5
1600
102
{ACAD_REACTORS
330
15FE
102
}
330
15FE
100
AcDbPlotSettings
  1

  2
Canon LBP3800 LIPSLX
  4
A4
  6

 40
5.873749732971191
 41
5.873747825622558
 42
5.873748779296875
 43
5.873748779296875
 44
209.9733276367187
 45
296.9259948730469
 46
0.0
 47
0.0
 48
0.0
 49
0.0
140
0.0
141
0.0
142
1.0
143
1.0
 70
 11952
 72
     1
 73
     1
 74
     0
  7

 75
     0
147
1.0
148
-4654.220239681789
149
-2571.895194906366
100
AcDbLayout
  1
Model
 70
     1
 71
     0
 10
0.0
 20
0.0
 11
12.0
 21
9.0
 12
0.0
 22
0.0
 32
0.0
 14
0.0
 24
0.0
 34
0.0
 15
0.0
 25
0.0
 35
0.0
146
0.0
 13
0.0
 23
0.0
 33
0.0
 16
1.0
 26
0.0
 36
0.0
 17
0.0
 27
1.0
 37
0.0
 76
     0
330
18
  0
LAYOUT
  5
1601
102
{ACAD_REACTORS
330
15FE
102
}
330
15FE
100
AcDbPlotSettings
  1

  2
Canon LBP3800 LIPSLX
  4

  6

 40
0.0
 41
0.0
 42
0.0
 43
0.0
 44
0.0
 45
0.0
 46
0.0
 47
0.0
 48
0.0
 49
0.0
140
0.0
141
0.0
142
1.0
143
1.0
 70
   688
 72
     0
 73
     0
 74
     5
  7

 75
    16
147
1.0
148
0.0
149
0.0
100
AcDbLayout
  1
ﾚｲｱｳﾄ1
 70
     1
 71
     1
 10
0.0
 20
0.0
 11
420.0
 21
297.0
 12
0.0
 22
0.0
 32
0.0
 14
1.000000000000000E+20
 24
1.000000000000000E+20
 34
1.000000000000000E+20
 15
-1.000000000000000E+20
 25
-1.000000000000000E+20
 35
-1.000000000000000E+20
146
0.0
 13
0.0
 23
0.0
 33
0.0
 16
1.0
 26
0.0
 36
0.0
 17
0.0
 27
1.0
 37
0.0
 76
     0
330
15
331
298
  0
MLINESTYLE
  5
1C
102
{ACAD_REACTORS
330
1B
102
}
330
1B
100
AcDbMlineStyle
  2
STANDARD
 70
     0
  3

 62
   256
 51
90.0
 52
90.0
 71
     2
 49
0.5
 62
   256
  6
BYLAYER
 49
-0.5
 62
   256
  6
BYLAYER
  0
ACDBPLACEHOLDER
  5
15FD
102
{ACAD_REACTORS
330
15FC
102
}
330
15FC
  0
DICTIONARYVAR
  5
B2B
102
{ACAD_REACTORS
330
B2A
102
}
330
B2A
100
DictionaryVariables
280
     0
  1
96
  0
ENDSEC
  0
EOF
