  0
SECTION
  2
HEADER
  9
$ACADVER
  1
AC1015
  9
$ACADMAINTVER
 70
     6
  9
$DWGCODEPAGE
  3
ANSI_932
  9
$INSBASE
 10
0.0
 20
0.0
 30
0.0
  9
$EXTMIN
 10
710.0813698183028
 20
984.8549298695507
 30
0.0
  9
$EXTMAX
 10
8907.693455218545
 20
6173.667251560635
 30
0.0
  9
$LIMMIN
 10
0.0
 20
0.0
  9
$LIMMAX
 10
4455.0
 20
3150.0
  9
$ORTHOMODE
 70
     0
  9
$REGENMODE
 70
     1
  9
$FILLMODE
 70
     1
  9
$QTEXTMODE
 70
     0
  9
$MIRRTEXT
 70
     1
  9
$LTSCALE
 40
5.0
  9
$ATTMODE
 70
     1
  9
$TEXTSIZE
 40
2.5
  9
$TRACEWID
 40
1.0
  9
$TEXTSTYLE
  7
STANDARD
  9
$CLAYER
  8
OBJECT
  9
$CELTYPE
  6
BYLAYER
  9
$CECOLOR
 62
   256
  9
$CELTSCALE
 40
1.0
  9
$DISPSILH
 70
     0
  9
$DIMSCALE
 40
15.0
  9
$DIMASZ
 40
2.5
  9
$DIMEXO
 40
0.625
  9
$DIMDLI
 40
3.75
  9
$DIMRND
 40
0.0
  9
$DIMDLE
 40
0.0
  9
$DIMEXE
 40
1.25
  9
$DIMTP
 40
0.0
  9
$DIMTM
 40
0.0
  9
$DIMTXT
 40
2.5
  9
$DIMCEN
 40
2.5
  9
$DIMTSZ
 40
0.0
  9
$DIMTOL
 70
     0
  9
$DIMLIM
 70
     0
  9
$DIMTIH
 70
     0
  9
$DIMTOH
 70
     0
  9
$DIMSE1
 70
     0
  9
$DIMSE2
 70
     0
  9
$DIMTAD
 70
     1
  9
$DIMZIN
 70
     8
  9
$DIMBLK
  1

  9
$DIMASO
 70
     1
  9
$DIMSHO
 70
     1
  9
$DIMPOST
  1

  9
$DIMAPOST
  1

  9
$DIMALT
 70
     0
  9
$DIMALTD
 70
     4
  9
$DIMALTF
 40
0.0394
  9
$DIMLFAC
 40
1.0
  9
$DIMTOFL
 70
     1
  9
$DIMTVP
 40
0.0
  9
$DIMTIX
 70
     0
  9
$DIMSOXD
 70
     0
  9
$DIMSAH
 70
     0
  9
$DIMBLK1
  1

  9
$DIMBLK2
  1

  9
$DIMSTYLE
  2
STANDARD
  9
$DIMCLRD
 70
     0
  9
$DIMCLRE
 70
     0
  9
$DIMCLRT
 70
     0
  9
$DIMTFAC
 40
1.0
  9
$DIMGAP
 40
0.625
  9
$DIMJUST
 70
     0
  9
$DIMSD1
 70
     0
  9
$DIMSD2
 70
     0
  9
$DIMTOLJ
 70
     1
  9
$DIMTZIN
 70
     0
  9
$DIMALTZ
 70
     0
  9
$DIMALTTZ
 70
     0
  9
$DIMUPT
 70
     0
  9
$DIMDEC
 70
     4
  9
$DIMTDEC
 70
     4
  9
$DIMALTU
 70
     8
  9
$DIMALTTD
 70
     4
  9
$DIMTXSTY
  7
STANDARD
  9
$DIMAUNIT
 70
     0
  9
$DIMADEC
 70
     0
  9
$DIMALTRND
 40
0.0
  9
$DIMAZIN
 70
     0
  9
$DIMDSEP
 70
    46
  9
$DIMATFIT
 70
     3
  9
$DIMFRAC
 70
     0
  9
$DIMLDRBLK
  1

  9
$DIMLUNIT
 70
     6
  9
$DIMLWD
 70
    -2
  9
$DIMLWE
 70
    -2
  9
$DIMTMOVE
 70
     0
  9
$LUNITS
 70
     2
  9
$LUPREC
 70
     4
  9
$SKETCHINC
 40
1.0
  9
$FILLETRAD
 40
10.0
  9
$AUNITS
 70
     0
  9
$AUPREC
 70
     0
  9
$MENU
  1
acad
  9
$ELEVATION
 40
0.0
  9
$PELEVATION
 40
0.0
  9
$THICKNESS
 40
0.0
  9
$LIMCHECK
 70
     0
  9
$CHAMFERA
 40
10.0
  9
$CHAMFERB
 40
10.0
  9
$CHAMFERC
 40
20.0
  9
$CHAMFERD
 40
0.0
  9
$SKPOLY
 70
     0
  9
$TDCREATE
 40
2452111.335768865
  9
$TDUCREATE
 40
2452110.960768866
  9
$TDUPDATE
 40
2454547.692614849
  9
$TDUUPDATE
 40
2454547.317614849
  9
$TDINDWG
 40
0.8960882060
  9
$TDUSRTIMER
 40
0.8960882060
  9
$USRTIMER
 70
     1
  9
$ANGBASE
 50
0.0
  9
$ANGDIR
 70
     0
  9
$PDMODE
 70
     0
  9
$PDSIZE
 40
0.0
  9
$PLINEWID
 40
0.0
  9
$SPLFRAME
 70
     0
  9
$SPLINETYPE
 70
     6
  9
$SPLINESEGS
 70
     8
  9
$HANDSEED
  5
2A66
  9
$SURFTAB1
 70
     6
  9
$SURFTAB2
 70
     6
  9
$SURFTYPE
 70
     6
  9
$SURFU
 70
     6
  9
$SURFV
 70
     6
  9
$UCSBASE
  2

  9
$UCSNAME
  2

  9
$UCSORG
 10
0.0
 20
0.0
 30
0.0
  9
$UCSXDIR
 10
1.0
 20
0.0
 30
0.0
  9
$UCSYDIR
 10
0.0
 20
1.0
 30
0.0
  9
$UCSORTHOREF
  2

  9
$UCSORTHOVIEW
 70
     0
  9
$UCSORGTOP
 10
0.0
 20
0.0
 30
0.0
  9
$UCSORGBOTTOM
 10
0.0
 20
0.0
 30
0.0
  9
$UCSORGLEFT
 10
0.0
 20
0.0
 30
0.0
  9
$UCSORGRIGHT
 10
0.0
 20
0.0
 30
0.0
  9
$UCSORGFRONT
 10
0.0
 20
0.0
 30
0.0
  9
$UCSORGBACK
 10
0.0
 20
0.0
 30
0.0
  9
$PUCSBASE
  2

  9
$PUCSNAME
  2

  9
$PUCSORG
 10
0.0
 20
0.0
 30
0.0
  9
$PUCSXDIR
 10
1.0
 20
0.0
 30
0.0
  9
$PUCSYDIR
 10
0.0
 20
1.0
 30
0.0
  9
$PUCSORTHOREF
  2

  9
$PUCSORTHOVIEW
 70
     0
  9
$PUCSORGTOP
 10
0.0
 20
0.0
 30
0.0
  9
$PUCSORGBOTTOM
 10
0.0
 20
0.0
 30
0.0
  9
$PUCSORGLEFT
 10
0.0
 20
0.0
 30
0.0
  9
$PUCSORGRIGHT
 10
0.0
 20
0.0
 30
0.0
  9
$PUCSORGFRONT
 10
0.0
 20
0.0
 30
0.0
  9
$PUCSORGBACK
 10
0.0
 20
0.0
 30
0.0
  9
$USERI1
 70
     0
  9
$USERI2
 70
     0
  9
$USERI3
 70
     0
  9
$USERI4
 70
     0
  9
$USERI5
 70
     0
  9
$USERR1
 40
0.0
  9
$USERR2
 40
0.0
  9
$USERR3
 40
0.0
  9
$USERR4
 40
0.0
  9
$USERR5
 40
0.0
  9
$WORLDVIEW
 70
     1
  9
$SHADEDGE
 70
     3
  9
$SHADEDIF
 70
    70
  9
$TILEMODE
 70
     1
  9
$MAXACTVP
 70
    48
  9
$PINSBASE
 10
0.0
 20
0.0
 30
0.0
  9
$PLIMCHECK
 70
     0
  9
$PEXTMIN
 10
1.000000000000000E+20
 20
1.000000000000000E+20
 30
1.000000000000000E+20
  9
$PEXTMAX
 10
-1.000000000000000E+20
 20
-1.000000000000000E+20
 30
-1.000000000000000E+20
  9
$PLIMMIN
 10
0.0
 20
0.0
  9
$PLIMMAX
 10
420.0
 20
297.0
  9
$UNITMODE
 70
     0
  9
$VISRETAIN
 70
     1
  9
$PLINEGEN
 70
     0
  9
$PSLTSCALE
 70
     1
  9
$TREEDEPTH
 70
  3020
  9
$CMLSTYLE
  2
STANDARD
  9
$CMLJUST
 70
     0
  9
$CMLSCALE
 40
20.0
  9
$PROXYGRAPHICS
 70
     1
  9
$MEASUREMENT
 70
     1
  9
$CELWEIGHT
370
    -1
  9
$ENDCAPS
280
     0
  9
$JOINSTYLE
280
     0
  9
$LWDISPLAY
290
     0
  9
$INSUNITS
 70
     0
  9
$HYPERLINKBASE
  1

  9
$STYLESHEET
  1

  9
$XEDIT
290
     1
  9
$CEPSNTYPE
380
     0
  9
$PSTYLEMODE
290
     1
  9
$FINGERPRINTGUID
  2
{C9668057-E409-4CFD-A4F9-6C0551275C13}
  9
$VERSIONGUID
  2
{923DB901-9013-40B3-886C-6C59C66B1C6E}
  9
$EXTNAMES
290
     1
  9
$PSVPSCALE
 40
0.0
  9
$OLESTARTUP
290
     0
  0
ENDSEC
  0
SECTION
  2
CLASSES
  0
CLASS
  1
LWPOLYLINE
  2
AcDbPolyline
  3
AutoCAD 2000
 90
    32768
280
     0
281
     1
  0
CLASS
  1
DICTIONARYVAR
  2
AcDbDictionaryVar
  3
AutoCAD 2000
 90
        0
280
     0
281
     0
  0
CLASS
  1
HATCH
  2
AcDbHatch
  3
AutoCAD 2000
 90
    32768
280
     0
281
     1
  0
CLASS
  1
ACDBDICTIONARYWDFLT
  2
AcDbDictionaryWithDefault
  3
AutoCAD 2000
 90
        0
280
     0
281
     0
  0
CLASS
  1
ACDBPLACEHOLDER
  2
AcDbPlaceHolder
  3
AutoCAD 2000
 90
        0
280
     0
281
     0
  0
CLASS
  1
LAYOUT
  2
AcDbLayout
  3
AutoCAD 2000
 90
        0
280
     0
281
     0
  0
ENDSEC
  0
SECTION
  2
TABLES
  0
TABLE
  2
VPORT
  5
8
330
0
100
AcDbSymbolTable
 70
     2
  0
VPORT
  5
2A65
330
8
100
AcDbSymbolTableRecord
100
AcDbViewportTableRecord
  2
*Active
 70
     0
 10
0.0
 20
0.0
 11
1.0
 21
1.0
 12
7023.201069060336
 22
4658.912235403743
 13
0.0
 23
0.0
 14
10.0
 24
10.0
 15
10.0
 25
10.0
 16
0.0
 26
0.0
 36
1.0
 17
0.0
 27
0.0
 37
0.0
 40
3272.096126877668
 41
1.731203007518796
 42
50.0
 43
0.0
 44
0.0
 50
0.0
 51
0.0
 71
     0
 72
   100
 73
     1
 74
     1
 75
     0
 76
     0
 77
     0
 78
     0
281
     0
 65
     1
110
0.0
120
0.0
130
0.0
111
1.0
121
0.0
131
0.0
112
0.0
122
1.0
132
0.0
 79
     0
146
0.0
  0
ENDTAB
  0
TABLE
  2
LTYPE
  5
5
330
0
100
AcDbSymbolTable
 70
    46
  0
LTYPE
  5
12
330
5
100
AcDbSymbolTableRecord
100
AcDbLinetypeTableRecord
  2
BYBLOCK
 70
     0
  3

 72
    65
 73
     0
 40
0.0
  0
LTYPE
  5
13
330
5
100
AcDbSymbolTableRecord
100
AcDbLinetypeTableRecord
  2
BYLAYER
 70
     0
  3

 72
    65
 73
     0
 40
0.0
  0
LTYPE
  5
14
330
5
100
AcDbSymbolTableRecord
100
AcDbLinetypeTableRecord
  2
CONTINUOUS
 70
     0
  3
Solid line
 72
    65
 73
     0
 40
0.0
  0
LTYPE
  5
128
330
5
100
AcDbSymbolTableRecord
100
AcDbLinetypeTableRecord
  2
ACAD_ISO02W100
 70
     0
  3
ISO dash __ __ __ __ __ __ __ __ __ __ __ __ __
 72
    65
 73
     2
 40
15.0
 49
12.0
 74
     0
 49
-3.0
 74
     0
  0
LTYPE
  5
129
330
5
100
AcDbSymbolTableRecord
100
AcDbLinetypeTableRecord
  2
ACAD_ISO03W100
 70
     0
  3
ISO dash space __    __    __    __    __    __
 72
    65
 73
     2
 40
30.0
 49
12.0
 74
     0
 49
-18.0
 74
     0
  0
LTYPE
  5
12A
330
5
100
AcDbSymbolTableRecord
100
AcDbLinetypeTableRecord
  2
ACAD_ISO04W100
 70
     0
  3
ISO long-dash dot ____ . ____ . ____ . ____ . _
 72
    65
 73
     4
 40
30.5
 49
24.0
 74
     0
 49
-3.0
 74
     0
 49
0.5
 74
     0
 49
-3.0
 74
     0
  0
LTYPE
  5
12B
330
5
100
AcDbSymbolTableRecord
100
AcDbLinetypeTableRecord
  2
ACAD_ISO05W100
 70
     0
  3
ISO long-dash double-dot ____ .. ____ .. ____ .
 72
    65
 73
     8
 40
37.5
 49
24.0
 74
     0
 49
-3.0
 74
     0
 49
0.5
 74
     0
 49
-3.0
 74
     0
 49
0.5
 74
     0
 49
-3.0
 74
     0
 49
0.5
 74
     0
 49
-3.0
 74
     0
  0
LTYPE
  5
12C
330
5
100
AcDbSymbolTableRecord
100
AcDbLinetypeTableRecord
  2
ACAD_ISO06W100
 70
     0
  3
ISO long-dash triple-dot ____ ... ____ ... ____
 72
    65
 73
     8
 40
37.5
 49
24.0
 74
     0
 49
-3.0
 74
     0
 49
0.5
 74
     0
 49
-3.0
 74
     0
 49
0.5
 74
     0
 49
-3.0
 74
     0
 49
0.5
 74
     0
 49
-3.0
 74
     0
  0
LTYPE
  5
12D
330
5
100
AcDbSymbolTableRecord
100
AcDbLinetypeTableRecord
  2
ACAD_ISO07W100
 70
     0
  3
ISO dot . . . . . . . . . . . . . . . . . . . .
 72
    65
 73
     2
 40
3.5
 49
0.5
 74
     0
 49
-3.0
 74
     0
  0
LTYPE
  5
12E
330
5
100
AcDbSymbolTableRecord
100
AcDbLinetypeTableRecord
  2
ACAD_ISO08W100
 70
     0
  3
ISO long-dash short-dash ____ __ ____ __ ____ _
 72
    65
 73
     4
 40
36.0
 49
24.0
 74
     0
 49
-3.0
 74
     0
 49
6.0
 74
     0
 49
-3.0
 74
     0
  0
LTYPE
  5
12F
330
5
100
AcDbSymbolTableRecord
100
AcDbLinetypeTableRecord
  2
ACAD_ISO09W100
 70
     0
  3
ISO long-dash double-short-dash ____ __ __ ____
 72
    65
 73
     6
 40
45.0
 49
24.0
 74
     0
 49
-3.0
 74
     0
 49
6.0
 74
     0
 49
-3.0
 74
     0
 49
6.0
 74
     0
 49
-3.0
 74
     0
  0
LTYPE
  5
130
330
5
100
AcDbSymbolTableRecord
100
AcDbLinetypeTableRecord
  2
ACAD_ISO10W100
 70
     0
  3
ISO dash dot __ . __ . __ . __ . __ . __ . __ .
 72
    65
 73
     4
 40
18.5
 49
12.0
 74
     0
 49
-3.0
 74
     0
 49
0.5
 74
     0
 49
-3.0
 74
     0
  0
LTYPE
  5
131
330
5
100
AcDbSymbolTableRecord
100
AcDbLinetypeTableRecord
  2
ACAD_ISO11W100
 70
     0
  3
ISO double-dash dot __ __ . __ __ . __ __ . __ 
 72
    65
 73
     6
 40
33.5
 49
12.0
 74
     0
 49
-3.0
 74
     0
 49
12.0
 74
     0
 49
-3.0
 74
     0
 49
0.5
 74
     0
 49
-3.0
 74
     0
  0
LTYPE
  5
132
330
5
100
AcDbSymbolTableRecord
100
AcDbLinetypeTableRecord
  2
ACAD_ISO12W100
 70
     0
  3
ISO dash double-dot __ . . __ . . __ . . __ . .
 72
    65
 73
     6
 40
22.0
 49
12.0
 74
     0
 49
-3.0
 74
     0
 49
0.5
 74
     0
 49
-3.0
 74
     0
 49
0.5
 74
     0
 49
-3.0
 74
     0
  0
LTYPE
  5
133
330
5
100
AcDbSymbolTableRecord
100
AcDbLinetypeTableRecord
  2
ACAD_ISO13W100
 70
     0
  3
ISO double-dash double-dot __ __ . . __ __ . . 
 72
    65
 73
     8
 40
37.0
 49
12.0
 74
     0
 49
-3.0
 74
     0
 49
12.0
 74
     0
 49
-3.0
 74
     0
 49
0.5
 74
     0
 49
-3.0
 74
     0
 49
0.5
 74
     0
 49
-3.0
 74
     0
  0
LTYPE
  5
134
330
5
100
AcDbSymbolTableRecord
100
AcDbLinetypeTableRecord
  2
ACAD_ISO14W100
 70
     0
  3
ISO dash triple-dot __ . . . __ . . . __ . . . 
 72
    65
 73
     8
 40
25.5
 49
12.0
 74
     0
 49
-3.0
 74
     0
 49
0.5
 74
     0
 49
-3.0
 74
     0
 49
0.5
 74
     0
 49
-3.0
 74
     0
 49
0.5
 74
     0
 49
-3.0
 74
     0
  0
LTYPE
  5
135
330
5
100
AcDbSymbolTableRecord
100
AcDbLinetypeTableRecord
  2
ACAD_ISO15W100
 70
     0
  3
ISO double-dash triple-dot __ __ . . . __ __ . 
 72
    65
 73
    10
 40
40.49999999999999
 49
12.0
 74
     0
 49
-3.0
 74
     0
 49
12.0
 74
     0
 49
-3.0
 74
     0
 49
0.5
 74
     0
 49
-3.0
 74
     0
 49
0.5
 74
     0
 49
-3.0
 74
     0
 49
0.5
 74
     0
 49
-3.0
 74
     0
  0
LTYPE
  5
136
330
5
100
AcDbSymbolTableRecord
100
AcDbLinetypeTableRecord
  2
BATTING
 70
     0
  3
Batting SSSSSSSSSSSSSSSSSSSSSSSSSSSSSSSSSSSSSSS
 72
    65
 73
     4
 40
10.16253999999999
 49
0.00254
 74
     0
 49
-2.54
 74
     4
 75
   134
340
127
 46
2.54
 50
0.0
 44
-2.54
 45
0.0
 49
-5.08
 74
     4
 75
   134
340
127
 46
2.54
 50
180.0
 44
2.54
 45
0.0
 49
-2.54
 74
     0
  0
LTYPE
  5
137
330
5
100
AcDbSymbolTableRecord
100
AcDbLinetypeTableRecord
  2
BORDER
 70
     0
  3
Border __ __ . __ __ . __ __ . __ __ . __ __ .
 72
    65
 73
     6
 40
44.45
 49
12.7
 74
     0
 49
-6.349999999999999
 74
     0
 49
12.7
 74
     0
 49
-6.349999999999999
 74
     0
 49
0.0
 74
     0
 49
-6.349999999999999
 74
     0
  0
LTYPE
  5
138
330
5
100
AcDbSymbolTableRecord
100
AcDbLinetypeTableRecord
  2
BORDER2
 70
     0
  3
Border (.5x) __.__.__.__.__.__.__.__.__.__.__.
 72
    65
 73
     6
 40
22.225
 49
6.349999999999999
 74
     0
 49
-3.174999999999999
 74
     0
 49
6.349999999999999
 74
     0
 49
-3.174999999999999
 74
     0
 49
0.0
 74
     0
 49
-3.174999999999999
 74
     0
  0
LTYPE
  5
139
330
5
100
AcDbSymbolTableRecord
100
AcDbLinetypeTableRecord
  2
BORDERX2
 70
     0
  3
Border (2x) ____  ____  .  ____  ____  .  ___
 72
    65
 73
     6
 40
88.9
 49
25.4
 74
     0
 49
-12.7
 74
     0
 49
25.4
 74
     0
 49
-12.7
 74
     0
 49
0.0
 74
     0
 49
-12.7
 74
     0
  0
LTYPE
  5
13A
330
5
100
AcDbSymbolTableRecord
100
AcDbLinetypeTableRecord
  2
CENTER
 70
     0
  3
Center ____ _ ____ _ ____ _ ____ _ ____ _ ____
 72
    65
 73
     4
 40
50.8
 49
31.75
 74
     0
 49
-6.349999999999999
 74
     0
 49
6.349999999999999
 74
     0
 49
-6.349999999999999
 74
     0
  0
LTYPE
  5
13B
330
5
100
AcDbSymbolTableRecord
100
AcDbLinetypeTableRecord
  2
CENTER2
 70
     0
  3
Center (.5x) ___ _ ___ _ ___ _ ___ _ ___ _ ___
 72
    65
 73
     4
 40
28.57499999999999
 49
19.05
 74
     0
 49
-3.174999999999999
 74
     0
 49
3.174999999999999
 74
     0
 49
-3.174999999999999
 74
     0
  0
LTYPE
  5
13C
330
5
100
AcDbSymbolTableRecord
100
AcDbLinetypeTableRecord
  2
CENTERX2
 70
     0
  3
Center (2x) ________  __  ________  __  _____
 72
    65
 73
     4
 40
101.6
 49
63.5
 74
     0
 49
-12.7
 74
     0
 49
12.7
 74
     0
 49
-12.7
 74
     0
  0
LTYPE
  5
13D
330
5
100
AcDbSymbolTableRecord
100
AcDbLinetypeTableRecord
  2
DASHDOT
 70
     0
  3
Dash dot __ . __ . __ . __ . __ . __ . __ . __
 72
    65
 73
     4
 40
25.4
 49
12.7
 74
     0
 49
-6.349999999999999
 74
     0
 49
0.0
 74
     0
 49
-6.349999999999999
 74
     0
  0
LTYPE
  5
13E
330
5
100
AcDbSymbolTableRecord
100
AcDbLinetypeTableRecord
  2
DASHDOT2
 70
     0
  3
Dash dot (.5x) _._._._._._._._._._._._._._._.
 72
    65
 73
     4
 40
12.7
 49
6.349999999999999
 74
     0
 49
-3.174999999999999
 74
     0
 49
0.0
 74
     0
 49
-3.174999999999999
 74
     0
  0
LTYPE
  5
13F
330
5
100
AcDbSymbolTableRecord
100
AcDbLinetypeTableRecord
  2
DASHDOTX2
 70
     0
  3
Dash dot (2x) ____  .  ____  .  ____  .  ___
 72
    65
 73
     4
 40
50.8
 49
25.4
 74
     0
 49
-12.7
 74
     0
 49
0.0
 74
     0
 49
-12.7
 74
     0
  0
LTYPE
  5
140
330
5
100
AcDbSymbolTableRecord
100
AcDbLinetypeTableRecord
  2
DASHED
 70
     0
  3
Dashed __ __ __ __ __ __ __ __ __ __ __ __ __ _
 72
    65
 73
     2
 40
19.04999999999999
 49
12.7
 74
     0
 49
-6.349999999999999
 74
     0
  0
LTYPE
  5
141
330
5
100
AcDbSymbolTableRecord
100
AcDbLinetypeTableRecord
  2
DASHED2
 70
     0
  3
Dashed (.5x) _ _ _ _ _ _ _ _ _ _ _ _ _ _ _ _ _
 72
    65
 73
     2
 40
9.524999999999998
 49
6.349999999999999
 74
     0
 49
-3.174999999999999
 74
     0
  0
LTYPE
  5
142
330
5
100
AcDbSymbolTableRecord
100
AcDbLinetypeTableRecord
  2
DASHEDX2
 70
     0
  3
Dashed (2x) ____  ____  ____  ____  ____  ___
 72
    65
 73
     2
 40
38.09999999999999
 49
25.4
 74
     0
 49
-12.7
 74
     0
  0
LTYPE
  5
143
330
5
100
AcDbSymbolTableRecord
100
AcDbLinetypeTableRecord
  2
DIVIDE
 70
     0
  3
Divide ____ . . ____ . . ____ . . ____ . . ____
 72
    65
 73
     6
 40
31.74999999999999
 49
12.7
 74
     0
 49
-6.349999999999999
 74
     0
 49
0.0
 74
     0
 49
-6.349999999999999
 74
     0
 49
0.0
 74
     0
 49
-6.349999999999999
 74
     0
  0
LTYPE
  5
144
330
5
100
AcDbSymbolTableRecord
100
AcDbLinetypeTableRecord
  2
DIVIDE2
 70
     0
  3
Divide (.5x) __..__..__..__..__..__..__..__.._
 72
    65
 73
     6
 40
15.87499999999999
 49
6.349999999999999
 74
     0
 49
-3.174999999999999
 74
     0
 49
0.0
 74
     0
 49
-3.174999999999999
 74
     0
 49
0.0
 74
     0
 49
-3.174999999999999
 74
     0
  0
LTYPE
  5
145
330
5
100
AcDbSymbolTableRecord
100
AcDbLinetypeTableRecord
  2
DIVIDEX2
 70
     0
  3
Divide (2x) ________  .  .  ________  .  .  _
 72
    65
 73
     6
 40
63.49999999999999
 49
25.4
 74
     0
 49
-12.7
 74
     0
 49
0.0
 74
     0
 49
-12.7
 74
     0
 49
0.0
 74
     0
 49
-12.7
 74
     0
  0
LTYPE
  5
146
330
5
100
AcDbSymbolTableRecord
100
AcDbLinetypeTableRecord
  2
DOT
 70
     0
  3
Dot . . . . . . . . . . . . . . . . . . . . . .
 72
    65
 73
     2
 40
6.349999999999999
 49
0.0
 74
     0
 49
-6.349999999999999
 74
     0
  0
LTYPE
  5
147
330
5
100
AcDbSymbolTableRecord
100
AcDbLinetypeTableRecord
  2
DOT2
 70
     0
  3
Dot (.5x) .....................................
 72
    65
 73
     2
 40
3.174999999999999
 49
0.0
 74
     0
 49
-3.174999999999999
 74
     0
  0
LTYPE
  5
148
330
5
100
AcDbSymbolTableRecord
100
AcDbLinetypeTableRecord
  2
DOTX2
 70
     0
  3
Dot (2x) .  .  .  .  .  .  .  .  .  .  .  .  . 
 72
    65
 73
     2
 40
12.7
 49
0.0
 74
     0
 49
-12.7
 74
     0
  0
LTYPE
  5
149
330
5
100
AcDbSymbolTableRecord
100
AcDbLinetypeTableRecord
  2
FENCELINE1
 70
     0
  3
Fenceline circle ----0-----0----0-----0----0---
 72
    65
 73
     4
 40
36.82999999999999
 49
6.349999999999999
 74
     0
 49
-2.54
 74
     4
 75
   133
340
127
 46
2.54
 50
0.0
 44
-2.54
 45
0.0
 49
-2.54
 74
     0
 49
25.4
 74
     0
  0
LTYPE
  5
14A
330
5
100
AcDbSymbolTableRecord
100
AcDbLinetypeTableRecord
  2
FENCELINE2
 70
     0
  3
Fenceline square ----[]-----[]----[]-----[]----
 72
    65
 73
     4
 40
36.82999999999999
 49
6.349999999999999
 74
     0
 49
-2.54
 74
     4
 75
   132
340
127
 46
2.54
 50
0.0
 44
-2.54
 45
0.0
 49
-2.54
 74
     0
 49
25.4
 74
     0
  0
LTYPE
  5
14B
330
5
100
AcDbSymbolTableRecord
100
AcDbLinetypeTableRecord
  2
GAS_LINE
 70
     0
  3
Gas line ----GAS----GAS----GAS----GAS----GAS---
 72
    65
 73
     3
 40
24.13
 49
12.7
 74
     0
 49
-5.08
 74
     2
 75
     0
340
F
 46
2.54
 50
0.0
 44
-2.54
 45
-1.27
  9
GAS
 49
-6.349999999999999
 74
     0
  0
LTYPE
  5
14C
330
5
100
AcDbSymbolTableRecord
100
AcDbLinetypeTableRecord
  2
HIDDEN
 70
     0
  3
Hidden __ __ __ __ __ __ __ __ __ __ __ __ __ _
 72
    65
 73
     2
 40
9.524999999999998
 49
6.349999999999999
 74
     0
 49
-3.174999999999999
 74
     0
  0
LTYPE
  5
14D
330
5
100
AcDbSymbolTableRecord
100
AcDbLinetypeTableRecord
  2
HIDDEN2
 70
     0
  3
Hidden (.5x) _ _ _ _ _ _ _ _ _ _ _ _ _ _ _ _ _
 72
    65
 73
     2
 40
4.762499999999999
 49
3.174999999999999
 74
     0
 49
-1.587499999999999
 74
     0
  0
LTYPE
  5
14E
330
5
100
AcDbSymbolTableRecord
100
AcDbLinetypeTableRecord
  2
HIDDENX2
 70
     0
  3
Hidden (2x) ____ ____ ____ ____ ____ ____ ____
 72
    65
 73
     2
 40
19.04999999999999
 49
12.7
 74
     0
 49
-6.349999999999999
 74
     0
  0
LTYPE
  5
14F
330
5
100
AcDbSymbolTableRecord
100
AcDbLinetypeTableRecord
  2
HOT_WATER_SUPPLY
 70
     0
  3
Hot water supply ---- HW ---- HW ---- HW ----
 72
    65
 73
     3
 40
22.86
 49
12.7
 74
     0
 49
-5.08
 74
     2
 75
     0
340
F
 46
2.54
 50
0.0
 44
-2.54
 45
-1.27
  9
HW
 49
-5.08
 74
     0
  0
LTYPE
  5
150
330
5
100
AcDbSymbolTableRecord
100
AcDbLinetypeTableRecord
  2
PHANTOM
 70
     0
  3
Phantom ______  __  __  ______  __  __  ______
 72
    65
 73
     6
 40
63.5
 49
31.75
 74
     0
 49
-6.349999999999999
 74
     0
 49
6.349999999999999
 74
     0
 49
-6.349999999999999
 74
     0
 49
6.349999999999999
 74
     0
 49
-6.349999999999999
 74
     0
  0
LTYPE
  5
151
330
5
100
AcDbSymbolTableRecord
100
AcDbLinetypeTableRecord
  2
PHANTOM2
 70
     0
  3
Phantom (.5x) ___ _ _ ___ _ _ ___ _ _ ___ _ _
 72
    65
 73
     6
 40
31.75
 49
15.875
 74
     0
 49
-3.174999999999999
 74
     0
 49
3.174999999999999
 74
     0
 49
-3.174999999999999
 74
     0
 49
3.174999999999999
 74
     0
 49
-3.174999999999999
 74
     0
  0
LTYPE
  5
152
330
5
100
AcDbSymbolTableRecord
100
AcDbLinetypeTableRecord
  2
PHANTOMX2
 70
     0
  3
Phantom (2x) ____________    ____    ____   _
 72
    65
 73
     6
 40
127.0
 49
63.5
 74
     0
 49
-12.7
 74
     0
 49
12.7
 74
     0
 49
-12.7
 74
     0
 49
12.7
 74
     0
 49
-12.7
 74
     0
  0
LTYPE
  5
153
330
5
100
AcDbSymbolTableRecord
100
AcDbLinetypeTableRecord
  2
TRACKS
 70
     0
  3
Tracks -|-|-|-|-|-|-|-|-|-|-|-|-|-|-|-|-|-|-|-|
 72
    65
 73
     2
 40
7.62
 49
3.81
 74
     4
 75
   130
340
127
 46
6.349999999999999
 50
0.0
 44
0.0
 45
0.0
 49
3.81
 74
     0
  0
LTYPE
  5
154
330
5
100
AcDbSymbolTableRecord
100
AcDbLinetypeTableRecord
  2
ZIGZAG
 70
     0
  3
Zig zag /\/\/\/\/\/\/\/\/\/\/\/\/\/\/\/\/\/\/\/
 72
    65
 73
     4
 40
20.32254
 49
0.00254
 74
     0
 49
-5.08
 74
     4
 75
   131
340
127
 46
5.08
 50
0.0
 44
-5.08
 45
0.0
 49
-10.16
 74
     4
 75
   131
340
127
 46
5.08
 50
180.0
 44
5.08
 45
0.0
 49
-5.08
 74
     0
  0
ENDTAB
  0
TABLE
  2
LAYER
  5
2
330
0
100
AcDbSymbolTable
 70
     9
  0
LAYER
  5
E
330
2
100
AcDbSymbolTableRecord
100
AcDbLayerTableRecord
  2
0
 70
     0
 62
     7
  6
CONTINUOUS
370
    -3
390
15FD
  0
LAYER
  5
20
330
2
100
AcDbSymbolTableRecord
100
AcDbLayerTableRecord
  2
DEFPOINTS
 70
     0
 62
     7
  6
CONTINUOUS
290
     0
370
    -3
390
15FD
  0
LAYER
  5
21
330
2
100
AcDbSymbolTableRecord
100
AcDbLayerTableRecord
  2
OBJECT
 70
     0
 62
     7
  6
CONTINUOUS
370
    -3
390
15FD
  0
LAYER
  5
155
330
2
100
AcDbSymbolTableRecord
100
AcDbLayerTableRecord
  2
上書線
 70
     0
 62
     7
  6
CONTINUOUS
370
    -3
390
15FD
  0
LAYER
  5
156
330
2
100
AcDbSymbolTableRecord
100
AcDbLayerTableRecord
  2
基準線
 70
     0
 62
    -1
  6
CONTINUOUS
370
    -3
390
15FD
  0
LAYER
  5
157
330
2
100
AcDbSymbolTableRecord
100
AcDbLayerTableRecord
  2
点線
 70
     0
 62
     5
  6
HIDDEN
370
    -3
390
15FD
  0
LAYER
  5
158
330
2
100
AcDbSymbolTableRecord
100
AcDbLayerTableRecord
  2
寸法線
 70
     0
 62
     2
  6
CONTINUOUS
370
    -3
390
15FD
  0
LAYER
  5
19D7
330
2
100
AcDbSymbolTableRecord
100
AcDbLayerTableRecord
  2
上線
 70
     0
 62
     7
  6
CONTINUOUS
370
    -3
390
15FD
  0
LAYER
  5
2860
330
2
100
AcDbSymbolTableRecord
100
AcDbLayerTableRecord
  2
WUWAGAKI
 70
     0
 62
     7
  6
CONTINUOUS
370
    -3
390
15FD
  0
ENDTAB
  0
TABLE
  2
STYLE
  5
3
330
0
100
AcDbSymbolTable
 70
     3
  0
STYLE
  5
F
330
3
100
AcDbSymbolTableRecord
100
AcDbTextStyleTableRecord
  2
STANDARD
 70
     0
 40
0.0
 41
1.0
 50
0.0
 71
     0
 42
2.5
  3
MS PMincho.ttf
  4

1001
ACAD
1000
MS PMincho
1071
    32786
  0
STYLE
  5
22
330
3
100
AcDbSymbolTableRecord
100
AcDbTextStyleTableRecord
  2
ADESK1
 70
     0
 40
0.0
 41
1.0
 50
0.0
 71
     0
 42
5.0
  3
romans
  4
bigfont
  0
STYLE
  5
127
330
3
100
AcDbSymbolTableRecord
100
AcDbTextStyleTableRecord
  2

 70
     1
 40
0.0
 41
1.0
 50
0.0
 71
     0
 42
2.5
  3
ltypeshp.shx
  4

  0
ENDTAB
  0
TABLE
  2
VIEW
  5
6
330
0
100
AcDbSymbolTable
 70
     0
  0
ENDTAB
  0
TABLE
  2
UCS
  5
7
330
0
100
AcDbSymbolTable
 70
     0
  0
ENDTAB
  0
TABLE
  2
APPID
  5
9
330
0
100
AcDbSymbolTable
 70
     2
  0
APPID
  5
10
330
9
100
AcDbSymbolTableRecord
100
AcDbRegAppTableRecord
  2
ACAD
 70
     0
  0
APPID
  5
1213
330
9
100
AcDbSymbolTableRecord
100
AcDbRegAppTableRecord
  2
DRAWINGVARIABLESXDATA
 70
     0
  0
ENDTAB
  0
TABLE
  2
DIMSTYLE
  5
A
330
0
100
AcDbSymbolTable
 70
     2
100
AcDbDimStyleTable
 71
     1
340
1D
  0
DIMSTYLE
105
1D
330
A
100
AcDbSymbolTableRecord
100
AcDbDimStyleTableRecord
  2
STANDARD
 70
     0
340
F
  0
DIMSTYLE
105
23
330
A
100
AcDbSymbolTableRecord
100
AcDbDimStyleTableRecord
  2
JIS
 70
     0
 41
2.5
 42
1.0
 43
7.0
 44
1.0
 73
     0
 74
     0
 77
     1
 78
     8
140
2.5
141
0.0
143
0.0394
147
0.0
172
     1
174
     1
175
     1
340
F
  0
ENDTAB
  0
TABLE
  2
BLOCK_RECORD
  5
1
330
0
100
AcDbSymbolTable
 70
     1
  0
BLOCK_RECORD
  5
18
330
1
100
AcDbSymbolTableRecord
100
AcDbBlockTableRecord
  2
*MODEL_SPACE
340
1600
  0
BLOCK_RECORD
  5
15
330
1
100
AcDbSymbolTableRecord
100
AcDbBlockTableRecord
  2
*PAPER_SPACE
340
1601
  0
BLOCK_RECORD
  5
24
330
1
100
AcDbSymbolTableRecord
100
AcDbBlockTableRecord
  2
JIS_A4L
340
0
  0
ENDTAB
  0
ENDSEC
  0
SECTION
  2
BLOCKS
  0
BLOCK
  5
19
330
18
100
AcDbEntity
  8
0
100
AcDbBlockBegin
  2
*MODEL_SPACE
 70
     2
 10
0.0
 20
0.0
 30
0.0
  3
*MODEL_SPACE
  1

  0
ENDBLK
  5
1A
330
18
100
AcDbEntity
  8
0
100
AcDbBlockEnd
  0
BLOCK
  5
16
330
15
100
AcDbEntity
 67
     1
  8
0
100
AcDbBlockBegin
  2
*PAPER_SPACE
 70
     0
 10
0.0
 20
0.0
 30
0.0
  3
*PAPER_SPACE
  1

  0
ENDBLK
  5
17
330
15
100
AcDbEntity
 67
     1
  8
0
100
AcDbBlockEnd
  0
BLOCK
  5
A1
330
24
100
AcDbEntity
  8
0
100
AcDbBlockBegin
  2
JIS_A4L
 70
     2
 10
0.0
 20
0.0
 30
0.0
  3
JIS_A4L
  1

  0
LINE
  5
25
330
24
100
AcDbEntity
  8
0
100
AcDbLine
 10
0.0
 20
0.0
 30
0.0
 11
0.0
 21
10.0
 31
0.0
  0
LINE
  5
26
330
24
100
AcDbEntity
  8
0
100
AcDbLine
 10
0.0
 20
210.0
 30
0.0
 11
25.0
 21
210.0
 31
0.0
  0
LINE
  5
27
330
24
100
AcDbEntity
  8
0
100
AcDbLine
 10
297.0
 20
210.0
 30
0.0
 11
297.0
 21
200.0
 31
0.0
  0
LINE
  5
28
330
24
100
AcDbEntity
  8
0
100
AcDbLine
 10
297.0
 20
0.0
 30
0.0
 11
287.0
 21
0.0
 31
0.0
  0
LINE
  5
29
330
24
100
AcDbEntity
  8
0
100
AcDbLine
 10
25.0
 20
10.0
 30
0.0
 11
25.0
 21
200.0
 31
0.0
  0
LINE
  5
2A
330
24
100
AcDbEntity
  8
0
100
AcDbLine
 10
287.0
 20
10.0
 30
0.0
 11
25.0
 21
10.0
 31
0.0
  0
LINE
  5
2B
330
24
100
AcDbEntity
  8
0
100
AcDbLine
 10
287.0
 20
200.0
 30
0.0
 11
287.0
 21
10.0
 31
0.0
  0
LINE
  5
2C
330
24
100
AcDbEntity
  8
0
100
AcDbLine
 10
25.0
 20
200.0
 30
0.0
 11
287.0
 21
200.0
 31
0.0
  0
LINE
  5
2D
330
24
100
AcDbEntity
  8
0
100
AcDbLine
 10
0.0
 20
200.0
 30
0.0
 11
0.0
 21
210.0
 31
0.0
  0
LINE
  5
2E
330
24
100
AcDbEntity
  8
0
100
AcDbLine
 10
25.0
 20
0.0
 30
0.0
 11
0.0
 21
0.0
 31
0.0
  0
LINE
  5
2F
330
24
100
AcDbEntity
  8
0
100
AcDbLine
 10
297.0
 20
10.0
 30
0.0
 11
297.0
 21
0.0
 31
0.0
  0
LINE
  5
30
330
24
100
AcDbEntity
  8
0
100
AcDbLine
 10
287.0
 20
210.0
 30
0.0
 11
297.0
 21
210.0
 31
0.0
  0
ATTDEF
  5
31
330
24
100
AcDbEntity
  8
0
 62
     0
100
AcDbText
 10
19.0
 20
10.0
 30
0.0
 40
3.0
  1

 50
90.0
  7
ADESK1
100
AcDbAttributeDefinition
  3

  2
USER
 70
     8
  0
ATTDEF
  5
32
330
24
100
AcDbEntity
  8
0
 62
     0
100
AcDbText
 10
19.0
 20
70.0
 30
0.0
 40
3.0
  1

 50
90.0
  7
ADESK1
100
AcDbAttributeDefinition
  3

  2
REVDATE
 70
     8
  0
ATTDEF
  5
33
330
24
100
AcDbEntity
  8
0
 62
     0
100
AcDbText
 10
19.0
 20
118.0
 30
0.0
 40
3.0
  1

 50
90.0
  7
ADESK1
100
AcDbAttributeDefinition
  3

  2
FNAME
 70
     8
  0
LINE
  5
34
330
24
100
AcDbEntity
  8
OBJECT
100
AcDbLine
 10
130.0
 20
16.0
 30
0.0
 11
25.0
 21
16.0
 31
0.0
  0
LINE
  5
35
330
24
100
AcDbEntity
  8
OBJECT
100
AcDbLine
 10
130.0
 20
22.0
 30
0.0
 11
25.0
 21
22.0
 31
0.0
  0
LINE
  5
36
330
24
100
AcDbEntity
  8
OBJECT
100
AcDbLine
 10
130.0
 20
28.0
 30
0.0
 11
25.0
 21
28.0
 31
0.0
  0
LINE
  5
37
330
24
100
AcDbEntity
  8
OBJECT
100
AcDbLine
 10
130.0
 20
34.0
 30
0.0
 11
25.0
 21
34.0
 31
0.0
  0
LINE
  5
38
330
24
100
AcDbEntity
  8
OBJECT
100
AcDbLine
 10
130.0
 20
40.0
 30
0.0
 11
25.0
 21
40.0
 31
0.0
  0
LINE
  5
39
330
24
100
AcDbEntity
  8
OBJECT
100
AcDbLine
 10
28.0
 20
11.53589799999999
 30
0.0
 11
30.0
 21
15.0
 31
0.0
  0
LINE
  5
3A
330
24
100
AcDbEntity
  8
OBJECT
100
AcDbLine
 10
32.0
 20
11.53589799999999
 30
0.0
 11
30.0
 21
15.0
 31
0.0
  0
LINE
  5
3B
330
24
100
AcDbEntity
  8
OBJECT
100
AcDbLine
 10
35.0
 20
10.0
 30
0.0
 11
35.0
 21
40.0
 31
0.0
  0
LINE
  5
3C
330
24
100
AcDbEntity
  8
OBJECT
100
AcDbLine
 10
50.0
 20
10.0
 30
0.0
 11
50.0
 21
40.0
 31
0.0
  0
LINE
  5
3D
330
24
100
AcDbEntity
  8
OBJECT
100
AcDbLine
 10
80.0
 20
10.0
 30
0.0
 11
80.0
 21
40.0
 31
0.0
  0
LINE
  5
3E
330
24
100
AcDbEntity
  8
OBJECT
100
AcDbLine
 10
28.0
 20
11.53589799999999
 30
0.0
 11
32.0
 21
11.53589799999999
 31
0.0
  0
LINE
  5
3F
330
24
100
AcDbEntity
  8
OBJECT
100
AcDbLine
 10
39.5
 20
13.0
 30
0.0
 11
40.49999999999999
 21
13.0
 31
0.0
  0
LINE
  5
40
330
24
100
AcDbEntity
  8
OBJECT
100
AcDbLine
 10
44.5
 20
13.0
 30
0.0
 11
45.49999999999999
 21
13.0
 31
0.0
  0
LINE
  5
41
330
24
100
AcDbEntity
  8
OBJECT
100
AcDbLine
 10
32.0
 20
17.535898
 30
0.0
 11
30.0
 21
20.99999999999999
 31
0.0
  0
LINE
  5
42
330
24
100
AcDbEntity
  8
OBJECT
100
AcDbLine
 10
28.0
 20
17.535898
 30
0.0
 11
32.0
 21
17.535898
 31
0.0
  0
LINE
  5
43
330
24
100
AcDbEntity
  8
OBJECT
100
AcDbLine
 10
28.0
 20
17.535898
 30
0.0
 11
30.0
 21
20.99999999999999
 31
0.0
  0
LINE
  5
44
330
24
100
AcDbEntity
  8
OBJECT
100
AcDbLine
 10
32.0
 20
23.53589799999999
 30
0.0
 11
30.0
 21
26.99999999999999
 31
0.0
  0
LINE
  5
45
330
24
100
AcDbEntity
  8
OBJECT
100
AcDbLine
 10
28.0
 20
23.53589799999999
 30
0.0
 11
32.0
 21
23.53589799999999
 31
0.0
  0
LINE
  5
46
330
24
100
AcDbEntity
  8
OBJECT
100
AcDbLine
 10
28.0
 20
23.53589799999999
 30
0.0
 11
30.0
 21
26.99999999999999
 31
0.0
  0
LINE
  5
47
330
24
100
AcDbEntity
  8
OBJECT
100
AcDbLine
 10
28.0
 20
35.53589799999999
 30
0.0
 11
30.0
 21
39.0
 31
0.0
  0
LINE
  5
48
330
24
100
AcDbEntity
  8
OBJECT
100
AcDbLine
 10
32.0
 20
35.53589799999999
 30
0.0
 11
30.0
 21
39.0
 31
0.0
  0
LINE
  5
49
330
24
100
AcDbEntity
  8
OBJECT
100
AcDbLine
 10
28.0
 20
35.53589799999999
 30
0.0
 11
32.0
 21
35.53589799999999
 31
0.0
  0
LINE
  5
4A
330
24
100
AcDbEntity
  8
OBJECT
100
AcDbLine
 10
32.0
 20
29.53589799999999
 30
0.0
 11
30.0
 21
33.0
 31
0.0
  0
LINE
  5
4B
330
24
100
AcDbEntity
  8
OBJECT
100
AcDbLine
 10
28.0
 20
29.53589799999999
 30
0.0
 11
32.0
 21
29.53589799999999
 31
0.0
  0
LINE
  5
4C
330
24
100
AcDbEntity
  8
OBJECT
100
AcDbLine
 10
28.0
 20
29.53589799999999
 30
0.0
 11
30.0
 21
33.0
 31
0.0
  0
LINE
  5
4D
330
24
100
AcDbEntity
  8
OBJECT
100
AcDbLine
 10
39.5
 20
19.0
 30
0.0
 11
40.49999999999999
 21
19.0
 31
0.0
  0
LINE
  5
4E
330
24
100
AcDbEntity
  8
OBJECT
100
AcDbLine
 10
44.5
 20
19.0
 30
0.0
 11
45.49999999999999
 21
19.0
 31
0.0
  0
LINE
  5
4F
330
24
100
AcDbEntity
  8
OBJECT
100
AcDbLine
 10
39.5
 20
25.0
 30
0.0
 11
40.49999999999999
 21
25.0
 31
0.0
  0
LINE
  5
50
330
24
100
AcDbEntity
  8
OBJECT
100
AcDbLine
 10
44.5
 20
25.0
 30
0.0
 11
45.49999999999999
 21
25.0
 31
0.0
  0
LINE
  5
51
330
24
100
AcDbEntity
  8
OBJECT
100
AcDbLine
 10
39.5
 20
31.0
 30
0.0
 11
40.49999999999999
 21
31.0
 31
0.0
  0
LINE
  5
52
330
24
100
AcDbEntity
  8
OBJECT
100
AcDbLine
 10
39.5
 20
37.0
 30
0.0
 11
40.49999999999999
 21
37.0
 31
0.0
  0
LINE
  5
53
330
24
100
AcDbEntity
  8
OBJECT
100
AcDbLine
 10
44.5
 20
31.0
 30
0.0
 11
45.49999999999999
 21
31.0
 31
0.0
  0
LINE
  5
54
330
24
100
AcDbEntity
  8
OBJECT
100
AcDbLine
 10
44.5
 20
37.0
 30
0.0
 11
45.49999999999999
 21
37.0
 31
0.0
  0
LINE
  5
55
330
24
100
AcDbEntity
  8
OBJECT
100
AcDbLine
 10
120.0
 20
10.0
 30
0.0
 11
120.0
 21
40.0
 31
0.0
  0
LINE
  5
56
330
24
100
AcDbEntity
  8
OBJECT
100
AcDbLine
 10
130.0
 20
40.0
 30
0.0
 11
130.0
 21
10.0
 31
0.0
  0
LINE
  5
57
330
24
100
AcDbEntity
  8
0
100
AcDbLine
 10
156.0
 20
10.0
 30
0.0
 11
156.0
 21
0.0
 31
0.0
  0
LINE
  5
58
330
24
100
AcDbEntity
  8
0
100
AcDbLine
 10
156.0
 20
200.0
 30
0.0
 11
156.0
 21
210.0
 31
0.0
  0
LINE
  5
59
330
24
100
AcDbEntity
  8
0
100
AcDbLine
 10
287.0
 20
105.0
 30
0.0
 11
297.0
 21
105.0
 31
0.0
  0
LINE
  5
5A
330
24
100
AcDbEntity
  8
0
100
AcDbLine
 10
25.0
 20
105.0
 30
0.0
 11
0.0
 21
105.0
 31
0.0
  0
TEXT
  5
5B
330
24
100
AcDbEntity
  8
0
100
AcDbText
 10
1.0
 20
1.0
 30
0.0
 40
3.0
  1
この図枠はサンプルです。社内の規格やプロッタの出力範囲に合わせて適当に変更してご利用ください。
  7
ADESK1
100
AcDbText
  0
LINE
  5
5C
330
24
100
AcDbEntity
  8
0
100
AcDbLine
 10
25.0
 20
152.5
 30
0.0
 11
20.0
 21
152.5
 31
0.0
  0
LINE
  5
5D
330
24
100
AcDbEntity
  8
0
100
AcDbLine
 10
25.0
 20
105.0
 30
0.0
 11
20.0
 21
105.0
 31
0.0
  0
LINE
  5
5E
330
24
100
AcDbEntity
  8
0
100
AcDbLine
 10
25.0
 20
57.5
 30
0.0
 11
20.0
 21
57.5
 31
0.0
  0
LINE
  5
5F
330
24
100
AcDbEntity
  8
0
100
AcDbLine
 10
68.66666666666668
 20
10.0
 30
0.0
 11
68.66666666666668
 21
5.0
 31
0.0
  0
LINE
  5
60
330
24
100
AcDbEntity
  8
0
100
AcDbLine
 10
112.3333333333333
 20
10.0
 30
0.0
 11
112.3333333333333
 21
5.0
 31
0.0
  0
LINE
  5
61
330
24
100
AcDbEntity
  8
0
100
AcDbLine
 10
156.0
 20
10.0
 30
0.0
 11
156.0
 21
5.0
 31
0.0
  0
LINE
  5
62
330
24
100
AcDbEntity
  8
0
100
AcDbLine
 10
199.6666666666666
 20
10.0
 30
0.0
 11
199.6666666666666
 21
5.0
 31
0.0
  0
LINE
  5
63
330
24
100
AcDbEntity
  8
0
100
AcDbLine
 10
243.3333333333333
 20
10.0
 30
0.0
 11
243.3333333333333
 21
5.0
 31
0.0
  0
LINE
  5
64
330
24
100
AcDbEntity
  8
0
100
AcDbLine
 10
287.0
 20
57.5
 30
0.0
 11
292.0
 21
57.5
 31
0.0
  0
LINE
  5
65
330
24
100
AcDbEntity
  8
0
100
AcDbLine
 10
287.0
 20
105.0
 30
0.0
 11
292.0
 21
105.0
 31
0.0
  0
LINE
  5
66
330
24
100
AcDbEntity
  8
0
100
AcDbLine
 10
287.0
 20
152.5
 30
0.0
 11
292.0
 21
152.5
 31
0.0
  0
LINE
  5
67
330
24
100
AcDbEntity
  8
0
100
AcDbLine
 10
243.3333333333333
 20
200.0
 30
0.0
 11
243.3333333333333
 21
205.0
 31
0.0
  0
LINE
  5
68
330
24
100
AcDbEntity
  8
0
100
AcDbLine
 10
199.6666666666666
 20
200.0
 30
0.0
 11
199.6666666666666
 21
205.0
 31
0.0
  0
LINE
  5
69
330
24
100
AcDbEntity
  8
0
100
AcDbLine
 10
156.0
 20
200.0
 30
0.0
 11
156.0
 21
205.0
 31
0.0
  0
LINE
  5
6A
330
24
100
AcDbEntity
  8
0
100
AcDbLine
 10
112.3333333333333
 20
200.0
 30
0.0
 11
112.3333333333333
 21
205.0
 31
0.0
  0
LINE
  5
6B
330
24
100
AcDbEntity
  8
0
100
AcDbLine
 10
68.66666666666666
 20
200.0
 30
0.0
 11
68.66666666666666
 21
205.0
 31
0.0
  0
TEXT
  5
6C
330
24
100
AcDbEntity
  8
0
100
AcDbText
 10
45.61904761904761
 20
201.0
 30
0.0
 40
3.0
  1
1
  7
ADESK1
 72
     1
 11
46.83333333333332
 21
201.0
 31
0.0
100
AcDbText
  0
TEXT
  5
6D
330
24
100
AcDbEntity
  8
0
100
AcDbText
 10
21.66139736003921
 20
176.25
 30
0.0
 40
3.0
  1
A
  7
ADESK1
 72
     1
 11
22.94711164575349
 21
176.25
 31
0.0
100
AcDbText
  0
TEXT
  5
6E
330
24
100
AcDbEntity
  8
0
100
AcDbText
 10
89.07142857142856
 20
201.0
 30
0.0
 40
3.0
  1
2
  7
ADESK1
 72
     1
 11
90.5
 21
201.0
 31
0.0
100
AcDbText
  0
TEXT
  5
6F
330
24
100
AcDbEntity
  8
0
100
AcDbText
 10
132.7380952380952
 20
201.0
 30
0.0
 40
3.0
  1
3
  7
ADESK1
 72
     1
 11
134.1666666666666
 21
201.0
 31
0.0
100
AcDbText
  0
TEXT
  5
70
330
24
100
AcDbEntity
  8
0
100
AcDbText
 10
176.3333333333333
 20
201.0
 30
0.0
 40
3.0
  1
4
  7
ADESK1
 72
     1
 11
177.8333333333333
 21
201.0
 31
0.0
100
AcDbText
  0
TEXT
  5
71
330
24
100
AcDbEntity
  8
0
100
AcDbText
 10
220.0714285714286
 20
201.0
 30
0.0
 40
3.0
  1
5
  7
ADESK1
 72
     1
 11
221.4999999999999
 21
201.0
 31
0.0
100
AcDbText
  0
TEXT
  5
72
330
24
100
AcDbEntity
  8
0
100
AcDbText
 10
263.6666666666666
 20
201.0
 30
0.0
 40
3.0
  1
6
  7
ADESK1
 72
     1
 11
265.1666666666666
 21
201.0
 31
0.0
100
AcDbText
  0
TEXT
  5
73
330
24
100
AcDbEntity
  8
0
100
AcDbText
 10
21.37568307432492
 20
128.75
 30
0.0
 40
3.0
  1
B
  7
ADESK1
 72
     1
 11
22.94711164575349
 21
128.75
 31
0.0
100
AcDbText
  0
TEXT
  5
74
330
24
100
AcDbEntity
  8
0
100
AcDbText
 10
21.44711164575349
 20
81.25
 30
0.0
 40
3.0
  1
C
  7
ADESK1
 72
     1
 11
22.94711164575349
 21
81.25
 31
0.0
100
AcDbText
  0
TEXT
  5
75
330
24
100
AcDbEntity
  8
0
100
AcDbText
 10
21.37568307432492
 20
33.75
 30
0.0
 40
3.0
  1
D
  7
ADESK1
 72
     1
 11
22.94711164575349
 21
33.75
 31
0.0
100
AcDbText
  0
TEXT
  5
76
330
24
100
AcDbEntity
  8
0
100
AcDbText
 10
45.61904761904759
 20
6.230338100985607
 30
0.0
 40
3.0
  1
1
  7
ADESK1
 72
     1
 11
46.83333333333331
 21
6.230338100985607
 31
0.0
100
AcDbText
  0
TEXT
  5
77
330
24
100
AcDbEntity
  8
0
100
AcDbText
 10
89.07142857142856
 20
6.230338100985607
 30
0.0
 40
3.0
  1
2
  7
ADESK1
 72
     1
 11
90.5
 21
6.230338100985607
 31
0.0
100
AcDbText
  0
TEXT
  5
78
330
24
100
AcDbEntity
  8
0
100
AcDbText
 10
132.7380952380952
 20
6.230338100985607
 30
0.0
 40
3.0
  1
3
  7
ADESK1
 72
     1
 11
134.1666666666666
 21
6.230338100985607
 31
0.0
100
AcDbText
  0
TEXT
  5
79
330
24
100
AcDbEntity
  8
0
100
AcDbText
 10
176.3333333333333
 20
6.230338100985607
 30
0.0
 40
3.0
  1
4
  7
ADESK1
 72
     1
 11
177.8333333333333
 21
6.230338100985607
 31
0.0
100
AcDbText
  0
TEXT
  5
7A
330
24
100
AcDbEntity
  8
0
100
AcDbText
 10
220.0714285714286
 20
6.230338100985607
 30
0.0
 40
3.0
  1
5
  7
ADESK1
 72
     1
 11
221.4999999999999
 21
6.230338100985607
 31
0.0
100
AcDbText
  0
TEXT
  5
7B
330
24
100
AcDbEntity
  8
0
100
AcDbText
 10
263.6666666666666
 20
6.230338100985607
 30
0.0
 40
3.0
  1
6
  7
ADESK1
 72
     1
 11
265.1666666666666
 21
6.230338100985607
 31
0.0
100
AcDbText
  0
TEXT
  5
7C
330
24
100
AcDbEntity
  8
0
100
AcDbText
 10
287.9530581679809
 20
176.25
 30
0.0
 40
3.0
  1
A
  7
ADESK1
 72
     1
 11
289.2387724536952
 21
176.25
 31
0.0
100
AcDbText
  0
TEXT
  5
7D
330
24
100
AcDbEntity
  8
0
100
AcDbText
 10
287.6673438822666
 20
128.75
 30
0.0
 40
3.0
  1
B
  7
ADESK1
 72
     1
 11
289.2387724536952
 21
128.75
 31
0.0
100
AcDbText
  0
TEXT
  5
7E
330
24
100
AcDbEntity
  8
0
100
AcDbText
 10
287.7387724536952
 20
81.25
 30
0.0
 40
3.0
  1
C
  7
ADESK1
 72
     1
 11
289.2387724536952
 21
81.25
 31
0.0
100
AcDbText
  0
TEXT
  5
7F
330
24
100
AcDbEntity
  8
0
100
AcDbText
 10
287.6673438822666
 20
33.75
 30
0.0
 40
3.0
  1
D
  7
ADESK1
 72
     1
 11
289.2387724536952
 21
33.75
 31
0.0
100
AcDbText
  0
LINE
  5
80
330
24
100
AcDbEntity
  8
0
 62
     0
100
AcDbLine
 10
157.2978723404242
 20
49.00000000000036
 30
0.0
 11
287.0
 21
49.00000000000036
 31
0.0
  0
LINE
  5
81
330
24
100
AcDbEntity
  8
0
 62
     0
100
AcDbLine
 10
157.2978723404242
 20
13.00000000000004
 30
0.0
 11
287.0
 21
13.00000000000004
 31
0.0
  0
LINE
  5
82
330
24
100
AcDbEntity
  8
0
 62
     0
100
AcDbLine
 10
157.2978723404242
 20
37.00000000000024
 30
0.0
 11
287.0
 21
37.00000000000024
 31
0.0
  0
LINE
  5
83
330
24
100
AcDbEntity
  8
0
 62
     0
100
AcDbLine
 10
195.1276595744673
 20
22.00000000000012
 30
0.0
 11
287.0
 21
22.00000000000012
 31
0.0
  0
LINE
  5
84
330
24
100
AcDbEntity
  8
0
 62
     0
100
AcDbLine
 10
157.2978723404242
 20
10.0
 30
0.0
 11
287.0
 21
10.0
 31
0.0
  0
LINE
  5
85
330
24
100
AcDbEntity
  8
0
 62
     0
100
AcDbLine
 10
287.0
 20
49.00000000000036
 30
0.0
 11
157.2978723404242
 21
49.00000000000036
 31
0.0
  0
LINE
  5
86
330
24
100
AcDbEntity
  8
0
 62
     0
100
AcDbLine
 10
180.7163120567365
 20
37.00000000000024
 30
0.0
 11
180.7163120567365
 21
10.0
 31
0.0
  0
LINE
  5
87
330
24
100
AcDbEntity
  8
0
 62
     0
100
AcDbLine
 10
162.702127659573
 20
37.00000000000024
 30
0.0
 11
162.702127659573
 21
10.0
 31
0.0
  0
LINE
  5
88
330
24
100
AcDbEntity
  8
0
 62
     0
100
AcDbLine
 10
189.7234042553184
 20
37.00000000000024
 30
0.0
 11
189.7234042553184
 21
10.0
 31
0.0
  0
LINE
  5
89
330
24
100
AcDbEntity
  8
0
 62
     0
100
AcDbLine
 10
195.1276595744673
 20
25.00000000000012
 30
0.0
 11
195.1276595744673
 21
10.0
 31
0.0
  0
LINE
  5
8A
330
24
100
AcDbEntity
  8
0
 62
     0
100
AcDbLine
 10
157.2978723404242
 20
49.00000000000036
 30
0.0
 11
157.2978723404242
 21
10.0
 31
0.0
  0
LINE
  5
8B
330
24
100
AcDbEntity
  8
0
 62
     0
100
AcDbLine
 10
225.7517730496447
 20
49.00000000000036
 30
0.0
 11
225.7517730496447
 21
10.0
 31
0.0
  0
LINE
  5
8C
330
24
100
AcDbEntity
  8
0
 62
     0
100
AcDbLine
 10
205.7659574468077
 20
22.00000000000007
 30
0.0
 11
205.7659574468077
 21
10.0
 31
0.0
  0
LINE
  5
8D
330
24
100
AcDbEntity
  8
0
 62
     0
100
AcDbLine
 10
216.4042553191484
 20
22.00000000000007
 30
0.0
 11
216.4042553191484
 21
10.0
 31
0.0
  0
LINE
  5
8E
330
24
100
AcDbEntity
  8
0
 62
     0
100
AcDbLine
 10
157.2978723404242
 20
16.00000000000008
 30
0.0
 11
195.1276595744673
 21
16.00000000000008
 31
0.0
  0
LINE
  5
8F
330
24
100
AcDbEntity
  8
0
 62
     0
100
AcDbLine
 10
157.2978723404242
 20
10.0
 30
0.0
 11
157.2978723404242
 21
13.00000000000004
 31
0.0
  0
TEXT
  5
90
330
24
100
AcDbEntity
  8
0
 62
     0
100
AcDbText
 10
198.7174935280942
 20
10.48329012996929
 30
0.0
 40
1.791674070777747
  1
製図
  7
ADESK1
 72
     1
 11
200.5688900678978
 21
10.48329012996929
 31
0.0
100
AcDbText
  0
TEXT
  5
91
330
24
100
AcDbEntity
  8
0
 62
     0
100
AcDbText
 10
209.2960689314087
 20
10.48329012996929
 30
0.0
 40
1.791674070777747
  1
設計
  7
ADESK1
 72
     1
 11
211.2071879402383
 21
10.48329012996929
 31
0.0
100
AcDbText
  0
TEXT
  5
92
330
24
100
AcDbEntity
  8
0
 62
     0
100
AcDbText
 10
219.2447163844405
 20
10.55220101068186
 30
0.0
 40
1.791674070777747
  1
照査
  7
ADESK1
 72
     1
 11
221.1558353932701
 21
10.55220101068186
 31
0.0
100
AcDbText
  0
LINE
  5
93
330
24
100
AcDbEntity
  8
0
 62
     0
100
AcDbLine
 10
157.2978723404242
 20
25.00000000000012
 30
0.0
 11
195.1276595744673
 21
25.00000000000012
 31
0.0
  0
LINE
  5
94
330
24
100
AcDbEntity
  8
0
 62
     0
100
AcDbLine
 10
157.2978723404242
 20
22.00000000000007
 30
0.0
 11
195.1276595744673
 21
22.00000000000012
 31
0.0
  0
LINE
  5
95
330
24
100
AcDbEntity
  8
0
 62
     0
100
AcDbLine
 10
157.2978723404242
 20
19.00000000000007
 30
0.0
 11
195.1276595744673
 21
19.00000000000012
 31
0.0
  0
LINE
  5
96
330
24
100
AcDbEntity
  8
0
 62
     0
100
AcDbLine
 10
157.2978723404242
 20
34.00000000000024
 30
0.0
 11
225.7517730496447
 21
34.00000000000024
 31
0.0
  0
LINE
  5
97
330
24
100
AcDbEntity
  8
0
 62
     0
100
AcDbLine
 10
157.2978723404242
 20
31.0000000000002
 30
0.0
 11
225.7517730496447
 21
31.0000000000002
 31
0.0
  0
LINE
  5
98
330
24
100
AcDbEntity
  8
0
 62
     0
100
AcDbLine
 10
157.2978723404242
 20
28.00000000000015
 30
0.0
 11
225.7517730496447
 21
28.00000000000015
 31
0.0
  0
LINE
  5
99
330
24
100
AcDbEntity
  8
0
 62
     0
100
AcDbLine
 10
195.1276595744673
 20
25.00000000000012
 30
0.0
 11
225.7517730496447
 21
25.00000000000012
 31
0.0
  0
LINE
  5
9A
330
24
100
AcDbEntity
  8
0
 62
     0
100
AcDbLine
 10
195.1276595744673
 20
49.00000000000036
 30
0.0
 11
195.1276595744673
 21
25.00000000000012
 31
0.0
  0
LINE
  5
9B
330
24
100
AcDbEntity
  8
0
 62
     0
100
AcDbLine
 10
202.3333333333325
 20
37.00000000000024
 30
0.0
 11
202.3333333333325
 21
25.00000000000012
 31
0.0
  0
LINE
  5
9C
330
24
100
AcDbEntity
  8
0
 62
     0
100
AcDbLine
 10
213.1418439716305
 20
49.00000000000036
 30
0.0
 11
213.1418439716305
 21
22.00000000000012
 31
0.0
  0
LINE
  5
9D
330
24
100
AcDbEntity
  8
0
 62
     0
100
AcDbLine
 10
279.7943262411347
 20
22.00000000000012
 30
0.0
 11
279.7943262411347
 21
10.0
 31
0.0
  0
LINE
  5
9E
330
24
100
AcDbEntity
  8
0
 62
     0
100
AcDbLine
 10
287.0
 20
49.00000000000036
 30
0.0
 11
287.0
 21
10.0
 31
0.0
  0
LINE
  5
9F
330
24
100
AcDbEntity
  8
0
 62
     0
100
AcDbLine
 10
287.0
 20
10.0
 30
0.0
 11
287.0
 21
49.00000000000036
 31
0.0
  0
LINE
  5
A0
330
24
100
AcDbEntity
  8
0
 62
     0
100
AcDbLine
 10
279.7943262411347
 20
16.00000000000008
 30
0.0
 11
287.0
 21
16.00000000000008
 31
0.0
  0
ENDBLK
  5
A2
330
24
100
AcDbEntity
  8
0
100
AcDbBlockEnd
  0
ENDSEC
  0
SECTION
  2
ENTITIES
  0
MTEXT
  5
938
330
18
100
AcDbEntity
  8
上書線
100
AcDbMText
 10
1865.739761775792
 20
499.0283937835011
 30
0.0
 40
37.5
 41
0.0
 71
     4
 72
     1
  1
\A1;
 73
     1
 44
1.0
  0
LINE
  5
123E
330
18
100
AcDbEntity
  8
基準線
100
AcDbLine
 10
710.0813698183028
 20
2117.506972677286
 30
0.0
 11
731.0813698183028
 21
2117.506972677286
 31
0.0
  0
LINE
  5
14BB
330
18
100
AcDbEntity
  8
基準線
100
AcDbLine
 10
1281.296189060135
 20
2744.451732006984
 30
0.0
 11
1631.12377476475
 21
2744.451732006984
 31
0.0
  0
LINE
  5
14BC
330
18
100
AcDbEntity
  8
基準線
100
AcDbLine
 10
1131.296189060135
 20
2594.451732006984
 30
0.0
 11
1604.134047986604
 21
2594.451732006984
 31
0.0
  0
LINE
  5
1546
330
18
100
AcDbEntity
  8
基準線
100
AcDbLine
 10
2000.40772718317
 20
1104.126411816217
 30
0.0
 11
2000.40772718317
 21
1262.163674897728
 31
0.0
  0
LINE
  5
154B
330
18
100
AcDbEntity
  8
基準線
100
AcDbLine
 10
2550.40772718317
 20
1049.126411816217
 30
0.0
 11
2550.40772718317
 21
1211.614819254876
 31
0.0
  0
LINE
  5
154C
330
18
100
AcDbEntity
  8
基準線
100
AcDbLine
 10
2150.40772718317
 20
1049.126411816217
 30
0.0
 11
2150.40772718317
 21
1226.779475202555
 31
0.0
  0
LINE
  5
15CA
330
18
100
AcDbEntity
  8
基準線
100
AcDbLine
 10
3419.935833980378
 20
2804.85492986955
 30
0.0
 11
3776.432100616551
 21
2804.85492986955
 31
0.0
  0
LINE
  5
15CC
330
18
100
AcDbEntity
  8
基準線
100
AcDbLine
 10
3776.432100616551
 20
2804.85492986955
 30
0.0
 11
4171.357345948922
 21
2804.85492986955
 31
0.0
  0
LINE
  5
15D0
330
18
100
AcDbEntity
  8
基準線
100
AcDbLine
 10
3419.935833980378
 20
2684.85492986955
 30
0.0
 11
3776.432100616551
 21
2684.85492986955
 31
0.0
  0
LINE
  5
15D1
330
18
100
AcDbEntity
  8
基準線
100
AcDbLine
 10
3598.183967298465
 20
2684.85492986955
 30
0.0
 11
3598.183967298465
 21
984.8549298695507
 31
0.0
  0
LINE
  5
15D2
330
18
100
AcDbEntity
  8
基準線
100
AcDbLine
 10
3776.432100616551
 20
2484.854929869551
 30
0.0
 11
4171.357345948921
 21
2484.85492986955
 31
0.0
  0
LINE
  5
15D3
330
18
100
AcDbEntity
  8
基準線
100
AcDbLine
 10
3973.894723282737
 20
2684.854929869551
 30
0.0
 11
3973.894723282734
 21
984.8549298695507
 31
0.0
  0
LINE
  5
15D4
330
18
100
AcDbEntity
  8
基準線
100
AcDbLine
 10
3419.935833980378
 20
2684.85492986955
 30
0.0
 11
3419.935833980378
 21
2584.85492986955
 31
0.0
  0
LINE
  5
15D5
330
18
100
AcDbEntity
  8
基準線
100
AcDbLine
 10
3419.935833980378
 20
2634.85492986955
 30
0.0
 11
4114.659436953616
 21
2634.85492986955
 31
0.0
  0
MTEXT
  5
25C6
330
18
100
AcDbEntity
  8
上書線
100
AcDbMText
 10
8337.820148322336
 20
4625.50451333653
 30
0.0
 40
50.0
 41
1096.913
 71
     1
 72
     5
  1
731
 73
     1
 44
1.0
  0
MTEXT
  5
25C7
330
18
100
AcDbEntity
  8
上書線
100
AcDbMText
 10
7929.864624548398
 20
4619.866085511957
 30
0.0
 40
50.0
 41
1096.913
 71
     1
 72
     5
  1
1100
 73
     1
 44
1.0
  0
LINE
  5
25C8
330
18
100
AcDbEntity
  8
上書線
100
AcDbLine
 10
8189.908061201009
 20
5765.793316638927
 30
0.0
 11
8189.908061201009
 21
3945.793316638927
 31
0.0
  0
LINE
  5
25C9
330
18
100
AcDbEntity
  8
上書線
100
AcDbLine
 10
8584.833306533379
 20
5765.793316638927
 30
0.0
 11
8584.833306533379
 21
3945.793316638927
 31
0.0
  0
LINE
  5
25CA
330
18
100
AcDbEntity
  8
上書線
100
AcDbLine
 10
7833.411794564836
 20
5765.793316638927
 30
0.0
 11
7833.411794564836
 21
3945.793316638927
 31
0.0
  0
MTEXT
  5
25CB
330
18
100
AcDbEntity
  8
上書線
100
AcDbMText
 10
7929.864624548398
 20
4019.866085511957
 30
0.0
 40
50.0
 41
1096.913
 71
     1
 72
     5
  1
1400
 73
     1
 44
1.0
  0
MTEXT
  5
25CC
330
18
100
AcDbEntity
  8
上書線
100
AcDbMText
 10
7929.864624548398
 20
4119.866085511957
 30
0.0
 40
50.0
 41
1096.913
 71
     1
 72
     5
  1
1350
 73
     1
 44
1.0
  0
MTEXT
  5
25CD
330
18
100
AcDbEntity
  8
上書線
100
AcDbMText
 10
7929.864624548398
 20
4219.866085511957
 30
0.0
 40
50.0
 41
1096.913
 71
     1
 72
     5
  1
1300
 73
     1
 44
1.0
  0
MTEXT
  5
25CE
330
18
100
AcDbEntity
  8
上書線
100
AcDbMText
 10
7929.864624548398
 20
4319.866085511956
 30
0.0
 40
50.0
 41
1096.913
 71
     1
 72
     5
  1
1250
 73
     1
 44
1.0
  0
MTEXT
  5
25CF
330
18
100
AcDbEntity
  8
上書線
100
AcDbMText
 10
7929.864624548398
 20
4419.866085511957
 30
0.0
 40
50.0
 41
1096.913
 71
     1
 72
     5
  1
1200
 73
     1
 44
1.0
  0
MTEXT
  5
25D0
330
18
100
AcDbEntity
  8
上書線
100
AcDbMText
 10
7929.864624548398
 20
4519.866085511957
 30
0.0
 40
50.0
 41
1096.913
 71
     1
 72
     5
  1
1150
 73
     1
 44
1.0
  0
LINE
  5
25D1
330
18
100
AcDbEntity
  8
上書線
100
AcDbLine
 10
8584.833306533379
 20
4045.793316638927
 30
0.0
 11
7833.411794564836
 21
4045.793316638927
 31
0.0
  0
LINE
  5
25D2
330
18
100
AcDbEntity
  8
上書線
100
AcDbLine
 10
8584.833306533379
 20
4145.793316638927
 30
0.0
 11
7833.411794564836
 21
4145.793316638927
 31
0.0
  0
LINE
  5
25D3
330
18
100
AcDbEntity
  8
上書線
100
AcDbLine
 10
8584.833306533379
 20
4245.793316638927
 30
0.0
 11
7833.411794564836
 21
4245.793316638927
 31
0.0
  0
LINE
  5
25D4
330
18
100
AcDbEntity
  8
上書線
100
AcDbLine
 10
8584.833306533379
 20
4345.793316638927
 30
0.0
 11
7833.411794564836
 21
4345.793316638927
 31
0.0
  0
LINE
  5
25D5
330
18
100
AcDbEntity
  8
上書線
100
AcDbLine
 10
8584.833306533379
 20
4445.793316638927
 30
0.0
 11
7833.411794564836
 21
4445.793316638927
 31
0.0
  0
LINE
  5
25D6
330
18
100
AcDbEntity
  8
上書線
100
AcDbLine
 10
8584.833306533379
 20
4545.793316638927
 30
0.0
 11
7833.411794564836
 21
4545.793316638927
 31
0.0
  0
LINE
  5
25D7
330
18
100
AcDbEntity
  8
上書線
100
AcDbLine
 10
8584.833306533379
 20
3945.793316638927
 30
0.0
 11
7833.411794564836
 21
3945.793316638927
 31
0.0
  0
MTEXT
  5
25D8
330
18
100
AcDbEntity
  8
上書線
100
AcDbMText
 10
8337.820148322336
 20
4125.50451333653
 30
0.0
 40
50.0
 41
1064.287310582228
 71
     1
 72
     5
  1
900
 73
     1
 44
1.0
  0
MTEXT
  5
25D9
330
18
100
AcDbEntity
  8
上書線
100
AcDbMText
 10
8337.820148322336
 20
4025.50451333653
 30
0.0
 40
50.0
 41
1064.287310582229
 71
     1
 72
     5
  1
934
 73
     1
 44
1.0
  0
MTEXT
  5
25DA
330
18
100
AcDbEntity
  8
上書線
100
AcDbMText
 10
8337.820148322336
 20
4225.50451333653
 30
0.0
 40
50.0
 41
1064.287310582229
 71
     1
 72
     5
  1
866
 73
     1
 44
1.0
  0
MTEXT
  5
25DB
330
18
100
AcDbEntity
  8
上書線
100
AcDbMText
 10
8337.820148322336
 20
4325.50451333653
 30
0.0
 40
50.0
 41
1064.287310582228
 71
     1
 72
     5
  1
832
 73
     1
 44
1.0
  0
MTEXT
  5
25DC
330
18
100
AcDbEntity
  8
上書線
100
AcDbMText
 10
8337.820148322336
 20
4425.504513336529
 30
0.0
 40
50.0
 41
1096.913
 71
     1
 72
     5
  1
799
 73
     1
 44
1.0
  0
MTEXT
  5
25DD
330
18
100
AcDbEntity
  8
上書線
100
AcDbMText
 10
8337.820148322336
 20
4525.50451333653
 30
0.0
 40
50.0
 41
1096.913
 71
     1
 72
     5
  1
765
 73
     1
 44
1.0
  0
MTEXT
  5
25DE
330
18
100
AcDbEntity
  8
上書線
100
AcDbMText
 10
7929.864624548398
 20
4719.866085511957
 30
0.0
 40
50.0
 41
1096.913
 71
     1
 72
     5
  1
1050
 73
     1
 44
1.0
  0
MTEXT
  5
25DF
330
18
100
AcDbEntity
  8
上書線
100
AcDbMText
 10
7929.864624548398
 20
4819.866085511957
 30
0.0
 40
50.0
 41
1096.913
 71
     1
 72
     5
  1
1000
 73
     1
 44
1.0
  0
MTEXT
  5
25E0
330
18
100
AcDbEntity
  8
上書線
100
AcDbMText
 10
7961.474590327995
 20
4919.866085511957
 30
0.0
 40
50.0
 41
1096.913
 71
     1
 72
     5
  1
950
 73
     1
 44
1.0
  0
MTEXT
  5
25E1
330
18
100
AcDbEntity
  8
上書線
100
AcDbMText
 10
7961.474590327995
 20
5019.866085511957
 30
0.0
 40
50.0
 41
1096.913
 71
     1
 72
     5
  1
900
 73
     1
 44
1.0
  0
MTEXT
  5
25E2
330
18
100
AcDbEntity
  8
上書線
100
AcDbMText
 10
7961.474590327995
 20
5119.866085511957
 30
0.0
 40
50.0
 41
1096.913
 71
     1
 72
     5
  1
850
 73
     1
 44
1.0
  0
MTEXT
  5
25E3
330
18
100
AcDbEntity
  8
上書線
100
AcDbMText
 10
7961.474590327995
 20
5219.866085511957
 30
0.0
 40
50.0
 41
1096.913
 71
     1
 72
     5
  1
800
 73
     1
 44
1.0
  0
MTEXT
  5
25E4
330
18
100
AcDbEntity
  8
上書線
100
AcDbMText
 10
7961.474590327995
 20
5319.866085511957
 30
0.0
 40
50.0
 41
1096.913
 71
     1
 72
     5
  1
750
 73
     1
 44
1.0
  0
MTEXT
  5
25E5
330
18
100
AcDbEntity
  8
上書線
100
AcDbMText
 10
7961.474590327995
 20
5419.866085511957
 30
0.0
 40
50.0
 41
1096.913
 71
     1
 72
     5
  1
700
 73
     1
 44
1.0
  0
MTEXT
  5
25E6
330
18
100
AcDbEntity
  8
上書線
100
AcDbMText
 10
7961.474590327995
 20
5519.866085511957
 30
0.0
 40
50.0
 41
1096.913
 71
     1
 72
     5
  1
650
 73
     1
 44
1.0
  0
MTEXT
  5
25E7
330
18
100
AcDbEntity
  8
上書線
100
AcDbMText
 10
7961.474590327995
 20
5619.866085511957
 30
0.0
 40
50.0
 41
1096.913
 71
     1
 72
     5
  1
600
 73
     1
 44
1.0
  0
LINE
  5
25E8
330
18
100
AcDbEntity
  8
上書線
100
AcDbLine
 10
8584.833306533379
 20
4645.793316638927
 30
0.0
 11
7833.411794564836
 21
4645.793316638927
 31
0.0
  0
LINE
  5
25E9
330
18
100
AcDbEntity
  8
上書線
100
AcDbLine
 10
8584.833306533379
 20
4745.793316638927
 30
0.0
 11
7833.411794564836
 21
4745.793316638927
 31
0.0
  0
LINE
  5
25EA
330
18
100
AcDbEntity
  8
上書線
100
AcDbLine
 10
8584.833306533379
 20
4845.793316638927
 30
0.0
 11
7833.411794564836
 21
4845.793316638927
 31
0.0
  0
LINE
  5
25EB
330
18
100
AcDbEntity
  8
上書線
100
AcDbLine
 10
8584.833306533379
 20
4945.793316638927
 30
0.0
 11
7833.411794564836
 21
4945.793316638927
 31
0.0
  0
LINE
  5
25EC
330
18
100
AcDbEntity
  8
上書線
100
AcDbLine
 10
8584.833306533379
 20
5045.793316638928
 30
0.0
 11
7833.411794564836
 21
5045.793316638928
 31
0.0
  0
LINE
  5
25ED
330
18
100
AcDbEntity
  8
上書線
100
AcDbLine
 10
8584.833306533379
 20
5145.793316638927
 30
0.0
 11
7833.411794564836
 21
5145.793316638927
 31
0.0
  0
LINE
  5
25EE
330
18
100
AcDbEntity
  8
上書線
100
AcDbLine
 10
8584.833306533379
 20
5245.793316638927
 30
0.0
 11
7833.411794564836
 21
5245.793316638927
 31
0.0
  0
LINE
  5
25EF
330
18
100
AcDbEntity
  8
上書線
100
AcDbLine
 10
8584.833306533379
 20
5345.793316638927
 30
0.0
 11
7833.411794564836
 21
5345.793316638927
 31
0.0
  0
LINE
  5
25F0
330
18
100
AcDbEntity
  8
上書線
100
AcDbLine
 10
8584.833306533379
 20
5445.793316638927
 30
0.0
 11
7833.411794564836
 21
5445.793316638927
 31
0.0
  0
LINE
  5
25F1
330
18
100
AcDbEntity
  8
上書線
100
AcDbLine
 10
8584.833306533379
 20
5545.793316638928
 30
0.0
 11
7833.411794564836
 21
5545.793316638928
 31
0.0
  0
LINE
  5
25F2
330
18
100
AcDbEntity
  8
上書線
100
AcDbLine
 10
8584.833306533379
 20
5645.793316638927
 30
0.0
 11
7833.411794564836
 21
5645.793316638927
 31
0.0
  0
LINE
  5
25F3
330
18
100
AcDbEntity
  8
上書線
100
AcDbLine
 10
8584.833306533379
 20
5765.793316638927
 30
0.0
 11
7833.411794564836
 21
5765.793316638927
 31
0.0
  0
MTEXT
  5
25F4
330
18
100
AcDbEntity
  8
上書線
100
AcDbMText
 10
8008.876498414016
 20
5736.572667177349
 30
0.0
 40
50.0
 41
1096.913
 71
     1
 72
     5
  1
(㎜）
 73
     1
 44
1.0
  0
MTEXT
  5
25F5
330
18
100
AcDbEntity
  8
上書線
100
AcDbMText
 10
7913.340316955029
 20
5732.117042619961
 30
0.0
 40
50.0
 41
1096.913
 71
     1
 72
     5
  1
H
 73
     1
 44
1.0
  0
MTEXT
  5
25F6
330
18
100
AcDbEntity
  8
上書線
100
AcDbMText
 10
8337.820148322336
 20
5625.50451333653
 30
0.0
 40
50.0
 41
1096.913
 71
     1
 72
     5
  1
394
 73
     1
 44
1.0
  0
MTEXT
  5
25F7
330
18
100
AcDbEntity
  8
上書線
100
AcDbMText
 10
8337.820148322336
 20
5125.50451333653
 30
0.0
 40
50.0
 41
1096.913
 71
     1
 72
     5
  1
562
 73
     1
 44
1.0
  0
MTEXT
  5
25F8
330
18
100
AcDbEntity
  8
上書線
100
AcDbMText
 10
8337.820148322336
 20
4725.50451333653
 30
0.0
 40
50.0
 41
1096.913
 71
     1
 72
     5
  1
697
 73
     1
 44
1.0
  0
MTEXT
  5
25F9
330
18
100
AcDbEntity
  8
上書線
100
AcDbMText
 10
8337.820148322336
 20
4825.50451333653
 30
0.0
 40
50.0
 41
1096.913
 71
     1
 72
     5
  1
664
 73
     1
 44
1.0
  0
MTEXT
  5
25FA
330
18
100
AcDbEntity
  8
上書線
100
AcDbMText
 10
8337.820148322336
 20
4925.50451333653
 30
0.0
 40
50.0
 41
1096.913
 71
     1
 72
     5
  1
630
 73
     1
 44
1.0
  0
MTEXT
  5
25FB
330
18
100
AcDbEntity
  8
上書線
100
AcDbMText
 10
8337.820148322336
 20
5025.50451333653
 30
0.0
 40
50.0
 41
1096.913
 71
     1
 72
     5
  1
596
 73
     1
 44
1.0
  0
MTEXT
  5
25FC
330
18
100
AcDbEntity
  8
上書線
100
AcDbMText
 10
8337.820148322336
 20
5225.50451333653
 30
0.0
 40
50.0
 41
1096.913
 71
     1
 72
     5
  1
529
 73
     1
 44
1.0
  0
MTEXT
  5
25FD
330
18
100
AcDbEntity
  8
上書線
100
AcDbMText
 10
8337.820148322336
 20
5325.50451333653
 30
0.0
 40
50.0
 41
1096.913
 71
     1
 72
     5
  1
495
 73
     1
 44
1.0
  0
MTEXT
  5
25FE
330
18
100
AcDbEntity
  8
上書線
100
AcDbMText
 10
8337.820148322336
 20
5425.50451333653
 30
0.0
 40
50.0
 41
1096.913
 71
     1
 72
     5
  1
461
 73
     1
 44
1.0
  0
MTEXT
  5
25FF
330
18
100
AcDbEntity
  8
上書線
100
AcDbMText
 10
8337.820148322336
 20
5525.50451333653
 30
0.0
 40
50.0
 41
1096.913
 71
     1
 72
     5
  1
427
 73
     1
 44
1.0
  0
MTEXT
  5
2600
330
18
100
AcDbEntity
  8
上書線
100
AcDbMText
 10
8055.655903662056
 20
5918.602303011812
 30
0.0
 40
60.0
 41
1096.913
 71
     1
 72
     5
  1
重量表
 73
     1
 44
1.0
  0
MTEXT
  5
2601
330
18
100
AcDbEntity
  8
上書線
100
AcDbMText
 10
8236.218462332178
 20
5736.572667177349
 30
0.0
 40
50.0
 41
1096.913
 71
     1
 72
     5
  1
重量
 73
     1
 44
1.0
  0
MTEXT
  5
2602
330
18
100
AcDbEntity
  8
上書線
100
AcDbMText
 10
8425.71422892829
 20
5736.572667177349
 30
0.0
 40
50.0
 41
1096.913
 71
     1
 72
     5
  1
(㎏）
 73
     1
 44
1.0
  0
LINE
  5
2718
102
{ACAD_REACTORS
330
27FC
102
}
330
18
100
AcDbEntity
  8
OBJECT
100
AcDbLine
 10
6049.100813767375
 20
5312.210814626165
 30
0.0
 11
5649.100813767375
 21
4912.210814626164
 31
0.0
  0
LINE
  5
2719
102
{ACAD_REACTORS
330
27FC
102
}
330
18
100
AcDbEntity
  8
OBJECT
100
AcDbLine
 10
5660.100813767375
 20
5301.210814626164
 30
0.0
 11
5660.100813767375
 21
4923.210814626164
 31
0.0
  0
LINE
  5
271A
102
{ACAD_REACTORS
330
27FC
102
}
330
18
100
AcDbEntity
  8
OBJECT
100
AcDbLine
 10
5654.100813767375
 20
5307.210814626165
 30
0.0
 11
5654.100813767375
 21
4917.210814626164
 31
0.0
  0
LINE
  5
271B
330
18
100
AcDbEntity
  8
OBJECT
100
AcDbLine
 10
6149.100813767375
 20
4812.210814626165
 30
0.0
 11
6149.100813767375
 21
5412.210814626164
 31
0.0
  0
LINE
  5
271C
330
18
100
AcDbEntity
  8
OBJECT
100
AcDbLine
 10
5549.100813767375
 20
5412.210814626164
 30
0.0
 11
5549.100813767375
 21
4812.210814626165
 31
0.0
  0
LINE
  5
271D
102
{ACAD_REACTORS
330
27FD
102
}
330
18
100
AcDbEntity
  8
OBJECT
100
AcDbLine
 10
6049.100813767375
 20
4912.210814626164
 30
0.0
 11
6049.100813767375
 21
5312.210814626165
 31
0.0
  0
LINE
  5
271E
102
{ACAD_REACTORS
330
27FD
102
}
330
18
100
AcDbEntity
  8
OBJECT
100
AcDbLine
 10
5999.100813767375
 20
4962.210814626164
 30
0.0
 11
5999.100813767375
 21
5262.210814626165
 31
0.0
  0
LINE
  5
271F
330
18
100
AcDbEntity
  8
点線
100
AcDbLine
 10
5649.100813767375
 20
4462.210814626164
 30
0.0
 11
6049.100813767375
 21
4462.210814626164
 31
0.0
  0
LINE
  5
2720
330
18
100
AcDbEntity
  8
OBJECT
100
AcDbLine
 10
6149.100813767375
 20
4512.210814626164
 30
0.0
 11
5549.100813767375
 21
4512.210814626164
 31
0.0
  0
LINE
  5
2721
330
18
100
AcDbEntity
  8
OBJECT
100
AcDbLine
 10
5549.100813767375
 20
3512.210814626164
 30
0.0
 11
6149.100813767375
 21
3512.210814626164
 31
0.0
  0
LINE
  5
2722
330
18
100
AcDbEntity
  8
OBJECT
100
AcDbLine
 10
5549.100813767375
 20
4812.210814626165
 30
0.0
 11
6149.100813767375
 21
4812.210814626165
 31
0.0
  0
LINE
  5
2723
102
{ACAD_REACTORS
330
27FD
102
}
330
18
100
AcDbEntity
  8
OBJECT
100
AcDbLine
 10
5649.100813767375
 20
4912.210814626164
 30
0.0
 11
6049.100813767375
 21
4912.210814626164
 31
0.0
  0
LINE
  5
2724
102
{ACAD_REACTORS
330
27FD
102
}
330
18
100
AcDbEntity
  8
OBJECT
100
AcDbLine
 10
5699.100813767375
 20
4962.210814626164
 30
0.0
 11
5999.100813767375
 21
4962.210814626164
 31
0.0
  0
LINE
  5
2726
330
18
100
AcDbEntity
  8
点線
100
AcDbLine
 10
5699.100813767375
 20
4462.210814626164
 30
0.0
 11
5699.100813767375
 21
3512.210814626164
 31
0.0
  0
LINE
  5
2727
330
18
100
AcDbEntity
  8
OBJECT
100
AcDbLine
 10
5549.100813767375
 20
4512.210814626164
 30
0.0
 11
5549.100813767375
 21
3512.210814626164
 31
0.0
  0
LINE
  5
272B
330
18
100
AcDbEntity
  8
点線
100
AcDbLine
 10
5649.100813767375
 20
4512.210814626164
 30
0.0
 11
5649.100813767375
 21
4462.210814626164
 31
0.0
  0
LINE
  5
2734
102
{ACAD_REACTORS
330
27FD
102
}
330
18
100
AcDbEntity
  8
OBJECT
100
AcDbLine
 10
5699.100813767375
 20
4962.210814626164
 30
0.0
 11
5649.100813767375
 21
4912.210814626164
 31
0.0
  0
LINE
  5
2739
330
18
100
AcDbEntity
  8
点線
100
AcDbLine
 10
5999.100813767375
 20
4462.210814626164
 30
0.0
 11
5999.100813767375
 21
3512.210814626164
 31
0.0
  0
LINE
  5
273A
330
18
100
AcDbEntity
  8
OBJECT
100
AcDbLine
 10
6149.100813767375
 20
3512.210814626164
 30
0.0
 11
6149.100813767375
 21
4512.210814626164
 31
0.0
  0
LINE
  5
273D
330
18
100
AcDbEntity
  8
点線
100
AcDbLine
 10
6049.100813767375
 20
4462.210814626164
 30
0.0
 11
6049.100813767375
 21
4512.210814626164
 31
0.0
  0
LINE
  5
2746
102
{ACAD_REACTORS
330
27FC
102
}
330
18
100
AcDbEntity
  8
OBJECT
100
AcDbLine
 10
6038.100813767375
 20
5301.210814626164
 30
0.0
 11
5660.100813767375
 21
5301.210814626164
 31
0.0
  0
LINE
  5
2747
102
{ACAD_REACTORS
330
27FC
102
}
330
18
100
AcDbEntity
  8
OBJECT
100
AcDbLine
 10
5916.300813767376
 20
5179.410814626165
 30
0.0
 11
5660.100813767375
 21
5179.410814626165
 31
0.0
  0
LINE
  5
2748
102
{ACAD_REACTORS
330
27FC
102
}
330
18
100
AcDbEntity
  8
OBJECT
100
AcDbLine
 10
5922.62634987264
 20
5185.73635073143
 30
0.0
 11
5660.100813767375
 21
5185.410814626165
 31
0.0
  0
LINE
  5
2749
102
{ACAD_REACTORS
330
27FC
102
}
330
18
100
AcDbEntity
  8
OBJECT
100
AcDbLine
 10
5800.500813767377
 20
5063.610814626166
 30
0.0
 11
5660.100813767375
 21
5063.610814626166
 31
0.0
  0
LINE
  5
274A
102
{ACAD_REACTORS
330
27FC
102
}
330
18
100
AcDbEntity
  8
OBJECT
100
AcDbLine
 10
5794.500813767377
 20
5057.610814626166
 30
0.0
 11
5660.100813767375
 21
5057.610814626166
 31
0.0
  0
LINE
  5
274B
102
{ACAD_REACTORS
330
27FC
102
}
330
18
100
AcDbEntity
  8
OBJECT
100
AcDbLine
 10
6044.100813767375
 20
5307.210814626165
 30
0.0
 11
5654.100813767375
 21
5307.210814626165
 31
0.0
  0
LINE
  5
274D
330
18
100
AcDbEntity
  8
OBJECT
100
AcDbLine
 10
6149.100813767375
 20
5412.210814626164
 30
0.0
 11
5549.100813767375
 21
5412.210814626164
 31
0.0
  0
LINE
  5
2756
102
{ACAD_REACTORS
330
27FC
102
}
330
18
100
AcDbEntity
  8
OBJECT
100
AcDbLine
 10
5678.876092291046
 20
5179.410814626167
 30
0.0
 11
5678.876092291046
 21
5063.610814626166
 31
0.0
  0
LINE
  5
2757
102
{ACAD_REACTORS
330
27FC
102
}
330
18
100
AcDbEntity
  8
OBJECT
100
AcDbLine
 10
5697.626102286445
 20
5179.410823077566
 30
0.0
 11
5697.626102286445
 21
5063.610823077565
 31
0.0
  0
LINE
  5
2758
102
{ACAD_REACTORS
330
27FC
102
}
330
18
100
AcDbEntity
  8
OBJECT
100
AcDbLine
 10
5695.126102286446
 20
5179.410823077566
 30
0.0
 11
5695.126102286446
 21
5063.610823077565
 31
0.0
  0
LINE
  5
2759
102
{ACAD_REACTORS
330
27FC
102
}
330
18
100
AcDbEntity
  8
OBJECT
100
AcDbLine
 10
5676.376092291047
 20
5179.410814626167
 30
0.0
 11
5676.376092291047
 21
5063.610814626166
 31
0.0
  0
LINE
  5
275A
102
{ACAD_REACTORS
330
27FC
102
}
330
18
100
AcDbEntity
  8
OBJECT
100
AcDbLine
 10
5713.876122918629
 20
5179.410814626167
 30
0.0
 11
5713.876122918629
 21
5063.610814626166
 31
0.0
  0
LINE
  5
275B
102
{ACAD_REACTORS
330
27FC
102
}
330
18
100
AcDbEntity
  8
OBJECT
100
AcDbLine
 10
5716.376122918628
 20
5179.410814626167
 30
0.0
 11
5716.376122918628
 21
5063.610814626166
 31
0.0
  0
LINE
  5
275C
102
{ACAD_REACTORS
330
27FC
102
}
330
18
100
AcDbEntity
  8
OBJECT
100
AcDbLine
 10
5753.876164182994
 20
5179.410806174766
 30
0.0
 11
5753.876164182994
 21
5063.610806174766
 31
0.0
  0
LINE
  5
275D
102
{ACAD_REACTORS
330
27FC
102
}
330
18
100
AcDbEntity
  8
OBJECT
100
AcDbLine
 10
5751.376164182994
 20
5179.410806174766
 30
0.0
 11
5751.376164182994
 21
5063.610806174766
 31
0.0
  0
LINE
  5
275E
102
{ACAD_REACTORS
330
27FC
102
}
330
18
100
AcDbEntity
  8
OBJECT
100
AcDbLine
 10
5732.626143550811
 20
5179.410814626167
 30
0.0
 11
5732.626143550811
 21
5063.610814626166
 31
0.0
  0
LINE
  5
275F
102
{ACAD_REACTORS
330
27FC
102
}
330
18
100
AcDbEntity
  8
OBJECT
100
AcDbLine
 10
5735.126143550811
 20
5179.410814626167
 30
0.0
 11
5735.126143550811
 21
5063.610814626166
 31
0.0
  0
LINE
  5
2760
102
{ACAD_REACTORS
330
27FC
102
}
330
18
100
AcDbEntity
  8
OBJECT
100
AcDbLine
 10
5810.126226079542
 20
5179.410816798792
 30
0.0
 11
5810.126226079542
 21
5073.236226938332
 31
0.0
  0
LINE
  5
2761
102
{ACAD_REACTORS
330
27FC
102
}
330
18
100
AcDbEntity
  8
OBJECT
100
AcDbLine
 10
5807.626226079543
 20
5179.410816798792
 30
0.0
 11
5807.626226079543
 21
5070.736226938333
 31
0.0
  0
LINE
  5
2762
102
{ACAD_REACTORS
330
27FC
102
}
330
18
100
AcDbEntity
  8
OBJECT
100
AcDbLine
 10
5826.376246711726
 20
5179.410808347393
 30
0.0
 11
5826.376246711726
 21
5089.486247570516
 31
0.0
  0
LINE
  5
2763
102
{ACAD_REACTORS
330
27FC
102
}
330
18
100
AcDbEntity
  8
OBJECT
100
AcDbLine
 10
5791.37620544736
 20
5179.410816798792
 30
0.0
 11
5791.37620544736
 21
5063.610816798792
 31
0.0
  0
LINE
  5
2764
102
{ACAD_REACTORS
330
27FC
102
}
330
18
100
AcDbEntity
  8
OBJECT
100
AcDbLine
 10
5788.87620544736
 20
5179.410816798792
 30
0.0
 11
5788.87620544736
 21
5063.610816798792
 31
0.0
  0
LINE
  5
2765
102
{ACAD_REACTORS
330
27FC
102
}
330
18
100
AcDbEntity
  8
OBJECT
100
AcDbLine
 10
5770.126184815177
 20
5179.410825250192
 30
0.0
 11
5770.126184815177
 21
5063.610825250192
 31
0.0
  0
LINE
  5
2766
102
{ACAD_REACTORS
330
27FC
102
}
330
18
100
AcDbEntity
  8
OBJECT
100
AcDbLine
 10
5772.626184815177
 20
5179.410825250192
 30
0.0
 11
5772.626184815177
 21
5063.610825250192
 31
0.0
  0
LINE
  5
2767
102
{ACAD_REACTORS
330
27FC
102
}
330
18
100
AcDbEntity
  8
OBJECT
100
AcDbLine
 10
5772.626184815177
 20
5035.736185673966
 30
0.0
 11
5772.626184815177
 21
5057.61080400214
 31
0.0
  0
LINE
  5
2768
102
{ACAD_REACTORS
330
27FC
102
}
330
18
100
AcDbEntity
  8
OBJECT
100
AcDbLine
 10
5770.126184815177
 20
5033.236185673967
 30
0.0
 11
5770.126184815177
 21
5057.61080400214
 31
0.0
  0
LINE
  5
2769
102
{ACAD_REACTORS
330
27FC
102
}
330
18
100
AcDbEntity
  8
OBJECT
100
AcDbLine
 10
5788.87620544736
 20
5051.98620630615
 30
0.0
 11
5788.87620544736
 21
5057.610812453539
 31
0.0
  0
LINE
  5
276A
102
{ACAD_REACTORS
330
27FC
102
}
330
18
100
AcDbEntity
  8
OBJECT
100
AcDbLine
 10
5791.37620544736
 20
5054.486206306149
 30
0.0
 11
5791.37620544736
 21
5057.610812453539
 31
0.0
  0
LINE
  5
276E
102
{ACAD_REACTORS
330
27FC
102
}
330
18
100
AcDbEntity
  8
OBJECT
100
AcDbLine
 10
5735.126143550811
 20
4998.236144409601
 30
0.0
 11
5735.126143550811
 21
5057.610814626166
 31
0.0
  0
LINE
  5
276F
102
{ACAD_REACTORS
330
27FC
102
}
330
18
100
AcDbEntity
  8
OBJECT
100
AcDbLine
 10
5732.626143550811
 20
4995.736144409601
 30
0.0
 11
5732.626143550811
 21
5057.610814626166
 31
0.0
  0
LINE
  5
2770
102
{ACAD_REACTORS
330
27FC
102
}
330
18
100
AcDbEntity
  8
OBJECT
100
AcDbLine
 10
5751.376164182994
 20
5014.486165041784
 30
0.0
 11
5751.376164182994
 21
5057.610823077565
 31
0.0
  0
LINE
  5
2771
102
{ACAD_REACTORS
330
27FC
102
}
330
18
100
AcDbEntity
  8
OBJECT
100
AcDbLine
 10
5753.876164182994
 20
5016.986165041783
 30
0.0
 11
5753.876164182994
 21
5057.610823077565
 31
0.0
  0
LINE
  5
2772
102
{ACAD_REACTORS
330
27FC
102
}
330
18
100
AcDbEntity
  8
OBJECT
100
AcDbLine
 10
5716.376122918628
 20
4979.486123777418
 30
0.0
 11
5716.376122918628
 21
5057.610814626166
 31
0.0
  0
LINE
  5
2773
102
{ACAD_REACTORS
330
27FC
102
}
330
18
100
AcDbEntity
  8
OBJECT
100
AcDbLine
 10
5713.876122918629
 20
4976.986123777418
 30
0.0
 11
5713.876122918629
 21
5057.610814626166
 31
0.0
  0
LINE
  5
2774
102
{ACAD_REACTORS
330
27FC
102
}
330
18
100
AcDbEntity
  8
OBJECT
100
AcDbLine
 10
5676.376092291047
 20
4941.810814626165
 30
0.0
 11
5676.376092291047
 21
5057.610814626166
 31
0.0
  0
LINE
  5
2775
102
{ACAD_REACTORS
330
27FC
102
}
330
18
100
AcDbEntity
  8
OBJECT
100
AcDbLine
 10
5695.126102286446
 20
4958.236103145235
 30
0.0
 11
5695.126102286446
 21
5057.610806174767
 31
0.0
  0
LINE
  5
2776
102
{ACAD_REACTORS
330
27FC
102
}
330
18
100
AcDbEntity
  8
OBJECT
100
AcDbLine
 10
5697.626102286445
 20
4960.736103145235
 30
0.0
 11
5697.626102286445
 21
5057.610806174767
 31
0.0
  0
LINE
  5
2777
102
{ACAD_REACTORS
330
27FC
102
}
330
18
100
AcDbEntity
  8
OBJECT
100
AcDbLine
 10
5678.876092291046
 20
4941.810814626165
 30
0.0
 11
5678.876092291046
 21
5057.610814626166
 31
0.0
  0
LINE
  5
2778
102
{ACAD_REACTORS
330
27FC
102
}
330
18
100
AcDbEntity
  8
OBJECT
100
AcDbLine
 10
5672.700813767377
 20
4935.810814626166
 30
0.0
 11
5660.100813767375
 21
4935.810814626166
 31
0.0
  0
LINE
  5
2779
102
{ACAD_REACTORS
330
27FC
102
}
330
18
100
AcDbEntity
  8
OBJECT
100
AcDbLine
 10
5678.700813767378
 20
4941.810814626166
 30
0.0
 11
5660.100813767375
 21
4941.810814626166
 31
0.0
  0
LINE
  5
277F
102
{ACAD_REACTORS
330
27FC
102
}
330
18
100
AcDbEntity
  8
OBJECT
100
AcDbLine
 10
5772.626184815177
 20
5185.410804002138
 30
0.0
 11
5772.626184815177
 21
5301.210804002138
 31
0.0
  0
LINE
  5
2780
102
{ACAD_REACTORS
330
27FC
102
}
330
18
100
AcDbEntity
  8
OBJECT
100
AcDbLine
 10
5770.126184815177
 20
5185.410804002138
 30
0.0
 11
5770.126184815177
 21
5301.210804002138
 31
0.0
  0
LINE
  5
2781
102
{ACAD_REACTORS
330
27FC
102
}
330
18
100
AcDbEntity
  8
OBJECT
100
AcDbLine
 10
5788.87620544736
 20
5185.410812453538
 30
0.0
 11
5788.87620544736
 21
5301.210812453538
 31
0.0
  0
LINE
  5
2782
102
{ACAD_REACTORS
330
27FC
102
}
330
18
100
AcDbEntity
  8
OBJECT
100
AcDbLine
 10
5791.37620544736
 20
5185.410812453538
 30
0.0
 11
5791.37620544736
 21
5301.210812453538
 31
0.0
  0
LINE
  5
2783
102
{ACAD_REACTORS
330
27FC
102
}
330
18
100
AcDbEntity
  8
OBJECT
100
AcDbLine
 10
5826.376246711726
 20
5185.410820904937
 30
0.0
 11
5826.376246711726
 21
5301.210820904938
 31
0.0
  0
LINE
  5
2784
102
{ACAD_REACTORS
330
27FC
102
}
330
18
100
AcDbEntity
  8
OBJECT
100
AcDbLine
 10
5807.626226079543
 20
5185.410812453538
 30
0.0
 11
5807.626226079543
 21
5301.210812453538
 31
0.0
  0
LINE
  5
2785
102
{ACAD_REACTORS
330
27FC
102
}
330
18
100
AcDbEntity
  8
OBJECT
100
AcDbLine
 10
5810.126226079542
 20
5185.410812453538
 30
0.0
 11
5810.126226079542
 21
5301.210812453538
 31
0.0
  0
LINE
  5
2786
102
{ACAD_REACTORS
330
27FC
102
}
330
18
100
AcDbEntity
  8
OBJECT
100
AcDbLine
 10
5735.126143550811
 20
5185.410814626163
 30
0.0
 11
5735.126143550811
 21
5301.210814626164
 31
0.0
  0
LINE
  5
2787
102
{ACAD_REACTORS
330
27FC
102
}
330
18
100
AcDbEntity
  8
OBJECT
100
AcDbLine
 10
5732.626143550811
 20
5185.410814626163
 30
0.0
 11
5732.626143550811
 21
5301.210814626164
 31
0.0
  0
LINE
  5
2788
102
{ACAD_REACTORS
330
27FC
102
}
330
18
100
AcDbEntity
  8
OBJECT
100
AcDbLine
 10
5751.376164182994
 20
5185.410823077564
 30
0.0
 11
5751.376164182994
 21
5301.210823077564
 31
0.0
  0
LINE
  5
2789
102
{ACAD_REACTORS
330
27FC
102
}
330
18
100
AcDbEntity
  8
OBJECT
100
AcDbLine
 10
5753.876164182994
 20
5185.410823077564
 30
0.0
 11
5753.876164182994
 21
5301.210823077564
 31
0.0
  0
LINE
  5
278A
102
{ACAD_REACTORS
330
27FC
102
}
330
18
100
AcDbEntity
  8
OBJECT
100
AcDbLine
 10
5716.376122918628
 20
5185.410814626163
 30
0.0
 11
5716.376122918628
 21
5301.210814626164
 31
0.0
  0
LINE
  5
278B
102
{ACAD_REACTORS
330
27FC
102
}
330
18
100
AcDbEntity
  8
OBJECT
100
AcDbLine
 10
5713.876122918629
 20
5185.410814626163
 30
0.0
 11
5713.876122918629
 21
5301.210814626164
 31
0.0
  0
LINE
  5
278C
102
{ACAD_REACTORS
330
27FC
102
}
330
18
100
AcDbEntity
  8
OBJECT
100
AcDbLine
 10
5676.376092291047
 20
5185.410814626163
 30
0.0
 11
5676.376092291047
 21
5301.210814626164
 31
0.0
  0
LINE
  5
278D
102
{ACAD_REACTORS
330
27FC
102
}
330
18
100
AcDbEntity
  8
OBJECT
100
AcDbLine
 10
5695.126102286446
 20
5185.410806174764
 30
0.0
 11
5695.126102286446
 21
5301.210806174765
 31
0.0
  0
LINE
  5
278E
102
{ACAD_REACTORS
330
27FC
102
}
330
18
100
AcDbEntity
  8
OBJECT
100
AcDbLine
 10
5697.626102286445
 20
5185.410806174764
 30
0.0
 11
5697.626102286445
 21
5301.210806174765
 31
0.0
  0
LINE
  5
278F
102
{ACAD_REACTORS
330
27FC
102
}
330
18
100
AcDbEntity
  8
OBJECT
100
AcDbLine
 10
5678.876092291046
 20
5185.410814626163
 30
0.0
 11
5678.876092291046
 21
5301.210814626164
 31
0.0
  0
LINE
  5
2798
102
{ACAD_REACTORS
330
27FC
102
}
330
18
100
AcDbEntity
  8
OBJECT
100
AcDbLine
 10
5828.876246711725
 20
5179.410808347393
 30
0.0
 11
5828.876246711725
 21
5091.986247570515
 31
0.0
  0
LINE
  5
279F
102
{ACAD_REACTORS
330
27FC
102
}
330
18
100
AcDbEntity
  8
OBJECT
100
AcDbLine
 10
5885.126308608274
 20
5179.410825250192
 30
0.0
 11
5885.126308608274
 21
5148.236309467064
 31
0.0
  0
LINE
  5
27A0
102
{ACAD_REACTORS
330
27FC
102
}
330
18
100
AcDbEntity
  8
OBJECT
100
AcDbLine
 10
5882.626308608275
 20
5179.410825250192
 30
0.0
 11
5882.626308608275
 21
5145.736309467064
 31
0.0
  0
LINE
  5
27A1
102
{ACAD_REACTORS
330
27FC
102
}
330
18
100
AcDbEntity
  8
OBJECT
100
AcDbLine
 10
5901.376329240457
 20
5179.410816798792
 30
0.0
 11
5901.376329240457
 21
5164.486330099247
 31
0.0
  0
LINE
  5
27A2
102
{ACAD_REACTORS
330
27FC
102
}
330
18
100
AcDbEntity
  8
OBJECT
100
AcDbLine
 10
5903.876329240457
 20
5179.410816798792
 30
0.0
 11
5903.876329240457
 21
5166.986330099247
 31
0.0
  0
LINE
  5
27A3
102
{ACAD_REACTORS
330
27FC
102
}
330
18
100
AcDbEntity
  8
OBJECT
100
AcDbLine
 10
5866.376287976091
 20
5179.410825250192
 30
0.0
 11
5866.376287976091
 21
5129.486288834881
 31
0.0
  0
LINE
  5
27A4
102
{ACAD_REACTORS
330
27FC
102
}
330
18
100
AcDbEntity
  8
OBJECT
100
AcDbLine
 10
5863.876287976092
 20
5179.410825250192
 30
0.0
 11
5863.876287976092
 21
5126.986288834881
 31
0.0
  0
LINE
  5
27A5
102
{ACAD_REACTORS
330
27FC
102
}
330
18
100
AcDbEntity
  8
OBJECT
100
AcDbLine
 10
5845.126267343909
 20
5179.410833701592
 30
0.0
 11
5845.126267343909
 21
5108.236268202698
 31
0.0
  0
LINE
  5
27A6
102
{ACAD_REACTORS
330
27FC
102
}
330
18
100
AcDbEntity
  8
OBJECT
100
AcDbLine
 10
5847.626267343908
 20
5179.410833701592
 30
0.0
 11
5847.626267343908
 21
5110.736268202698
 31
0.0
  0
LINE
  5
27AE
102
{ACAD_REACTORS
330
27FC
102
}
330
18
100
AcDbEntity
  8
OBJECT
100
AcDbLine
 10
5847.626267343908
 20
5185.410795550738
 30
0.0
 11
5847.626267343908
 21
5301.210795550739
 31
0.0
  0
LINE
  5
27AF
102
{ACAD_REACTORS
330
27FC
102
}
330
18
100
AcDbEntity
  8
OBJECT
100
AcDbLine
 10
5845.126267343909
 20
5185.410795550738
 30
0.0
 11
5845.126267343909
 21
5301.210795550739
 31
0.0
  0
LINE
  5
27B0
102
{ACAD_REACTORS
330
27FC
102
}
330
18
100
AcDbEntity
  8
OBJECT
100
AcDbLine
 10
5863.876287976092
 20
5185.410804002138
 30
0.0
 11
5863.876287976092
 21
5301.210804002138
 31
0.0
  0
LINE
  5
27B1
102
{ACAD_REACTORS
330
27FC
102
}
330
18
100
AcDbEntity
  8
OBJECT
100
AcDbLine
 10
5866.376287976091
 20
5185.410804002138
 30
0.0
 11
5866.376287976091
 21
5301.210804002138
 31
0.0
  0
LINE
  5
27B2
102
{ACAD_REACTORS
330
27FC
102
}
330
18
100
AcDbEntity
  8
OBJECT
100
AcDbLine
 10
5903.876329240457
 20
5185.410812453538
 30
0.0
 11
5903.876329240457
 21
5301.210812453538
 31
0.0
  0
LINE
  5
27B3
102
{ACAD_REACTORS
330
27FC
102
}
330
18
100
AcDbEntity
  8
OBJECT
100
AcDbLine
 10
5901.376329240457
 20
5185.410812453538
 30
0.0
 11
5901.376329240457
 21
5301.210812453538
 31
0.0
  0
LINE
  5
27B4
102
{ACAD_REACTORS
330
27FC
102
}
330
18
100
AcDbEntity
  8
OBJECT
100
AcDbLine
 10
5882.626308608275
 20
5185.410804002138
 30
0.0
 11
5882.626308608275
 21
5301.210804002138
 31
0.0
  0
LINE
  5
27B5
102
{ACAD_REACTORS
330
27FC
102
}
330
18
100
AcDbEntity
  8
OBJECT
100
AcDbLine
 10
5885.126308608274
 20
5185.410804002138
 30
0.0
 11
5885.126308608274
 21
5301.210804002138
 31
0.0
  0
LINE
  5
27B6
102
{ACAD_REACTORS
330
27FC
102
}
330
18
100
AcDbEntity
  8
OBJECT
100
AcDbLine
 10
5920.12634987264
 20
5185.410793378112
 30
0.0
 11
5920.12634987264
 21
5301.210793378112
 31
0.0
  0
LINE
  5
27B7
102
{ACAD_REACTORS
330
27FC
102
}
330
18
100
AcDbEntity
  8
OBJECT
100
AcDbLine
 10
5922.62634987264
 20
5185.410793378112
 30
0.0
 11
5922.62634987264
 21
5301.210793378112
 31
0.0
  0
LINE
  5
27B8
102
{ACAD_REACTORS
330
27FC
102
}
330
18
100
AcDbEntity
  8
OBJECT
100
AcDbLine
 10
5997.626432401371
 20
5260.736433260161
 30
0.0
 11
5997.626432401371
 21
5301.210795550739
 31
0.0
  0
LINE
  5
27B9
102
{ACAD_REACTORS
330
27FC
102
}
330
18
100
AcDbEntity
  8
OBJECT
100
AcDbLine
 10
5995.126432401372
 20
5258.236433260162
 30
0.0
 11
5995.126432401372
 21
5301.210795550739
 31
0.0
  0
LINE
  5
27BA
102
{ACAD_REACTORS
330
27FC
102
}
330
18
100
AcDbEntity
  8
OBJECT
100
AcDbLine
 10
5960.126391137006
 20
5223.236391995795
 30
0.0
 11
5960.126391137006
 21
5301.210801829512
 31
0.0
  0
LINE
  5
27BB
102
{ACAD_REACTORS
330
27FC
102
}
330
18
100
AcDbEntity
  8
OBJECT
100
AcDbLine
 10
5957.626391137006
 20
5220.736391995796
 30
0.0
 11
5957.626391137006
 21
5301.210801829512
 31
0.0
  0
LINE
  5
27BC
102
{ACAD_REACTORS
330
27FC
102
}
330
18
100
AcDbEntity
  8
OBJECT
100
AcDbLine
 10
5976.376411769189
 20
5239.486412627979
 30
0.0
 11
5976.376411769189
 21
5301.210810280912
 31
0.0
  0
LINE
  5
27BD
102
{ACAD_REACTORS
330
27FC
102
}
330
18
100
AcDbEntity
  8
OBJECT
100
AcDbLine
 10
5978.876411769189
 20
5241.986412627978
 30
0.0
 11
5978.876411769189
 21
5301.210810280912
 31
0.0
  0
LINE
  5
27BE
102
{ACAD_REACTORS
330
27FC
102
}
330
18
100
AcDbEntity
  8
OBJECT
100
AcDbLine
 10
5941.376370504823
 20
5204.486371363612
 30
0.0
 11
5941.376370504823
 21
5301.210801829512
 31
0.0
  0
LINE
  5
27BF
102
{ACAD_REACTORS
330
27FC
102
}
330
18
100
AcDbEntity
  8
OBJECT
100
AcDbLine
 10
5938.876370504823
 20
5201.986371363613
 30
0.0
 11
5938.876370504823
 21
5301.210801829512
 31
0.0
  0
LINE
  5
27C0
102
{ACAD_REACTORS
330
27FC
102
}
330
18
100
AcDbEntity
  8
OBJECT
100
AcDbLine
 10
5828.876246711725
 20
5185.410820904937
 30
0.0
 11
5828.876246711725
 21
5301.210820904938
 31
0.0
  0
LINE
  5
27C5
102
{ACAD_REACTORS
330
27FC
102
}
330
18
100
AcDbEntity
  8
OBJECT
100
AcDbLine
 10
6016.376453033554
 20
5279.486453892344
 30
0.0
 11
6016.376453033554
 21
5301.210804002138
 31
0.0
  0
LINE
  5
27C8
102
{ACAD_REACTORS
330
27FC
102
}
330
18
100
AcDbEntity
  8
OBJECT
100
AcDbLine
 10
6032.626473665738
 20
5295.736474524527
 30
0.0
 11
6032.626473665738
 21
5301.210804002138
 31
0.0
  0
LINE
  5
27C9
102
{ACAD_REACTORS
330
27FC
102
}
330
18
100
AcDbEntity
  8
OBJECT
100
AcDbLine
 10
6035.126473665737
 20
5298.236474524527
 30
0.0
 11
6035.126473665737
 21
5301.210804002138
 31
0.0
  0
LINE
  5
27CD
102
{ACAD_REACTORS
330
27FC
102
}
330
18
100
AcDbEntity
  8
OBJECT
100
AcDbLine
 10
6013.876453033555
 20
5276.986453892344
 30
0.0
 11
6013.876453033555
 21
5301.210804002138
 31
0.0
  0
LINE
  5
27CE
102
{ACAD_REACTORS
330
27FD
102
}
330
18
100
AcDbEntity
  8
OBJECT
100
AcDbLine
 10
6049.100813767375
 20
5312.210814626165
 30
0.0
 11
5999.100813767375
 21
5262.210814626165
 31
0.0
  0
LINE
  5
27E5
330
18
100
AcDbEntity
  8
点線
100
AcDbLine
 10
6599.100813767376
 20
4462.210814626164
 30
0.0
 11
6599.100813767376
 21
3512.210814626164
 31
0.0
  0
LINE
  5
27E6
330
18
100
AcDbEntity
  8
OBJECT
100
AcDbLine
 10
7049.100813767376
 20
4512.210814626164
 30
0.0
 11
7049.100813767376
 21
3512.210814626164
 31
0.0
  0
LINE
  5
27E7
330
18
100
AcDbEntity
  8
点線
100
AcDbLine
 10
6899.100813767375
 20
4462.210814626164
 30
0.0
 11
6899.100813767375
 21
3512.210814626164
 31
0.0
  0
LINE
  5
27E8
330
18
100
AcDbEntity
  8
OBJECT
100
AcDbLine
 10
6449.100813767376
 20
3512.210814626164
 30
0.0
 11
6449.100813767376
 21
4512.210814626164
 31
0.0
  0
LINE
  5
27E9
330
18
100
AcDbEntity
  8
OBJECT
100
AcDbLine
 10
7049.100813767376
 20
3512.210814626164
 30
0.0
 11
6449.100813767376
 21
3512.210814626164
 31
0.0
  0
LINE
  5
27EA
330
18
100
AcDbEntity
  8
OBJECT
100
AcDbLine
 10
6449.100813767376
 20
4512.210814626164
 30
0.0
 11
7049.100813767376
 21
4512.210814626164
 31
0.0
  0
LINE
  5
27EB
330
18
100
AcDbEntity
  8
点線
100
AcDbLine
 10
6949.100813767376
 20
4462.210814626164
 30
0.0
 11
6549.100813767376
 21
4462.210814626164
 31
0.0
  0
LINE
  5
27EC
330
18
100
AcDbEntity
  8
点線
100
AcDbLine
 10
6949.100813767376
 20
4512.210814626164
 30
0.0
 11
6949.100813767376
 21
4462.210814626164
 31
0.0
  0
LINE
  5
27ED
330
18
100
AcDbEntity
  8
点線
100
AcDbLine
 10
6549.100813767376
 20
4462.210814626164
 30
0.0
 11
6549.100813767376
 21
4512.210814626164
 31
0.0
  0
LINE
  5
27F7
102
{ACAD_REACTORS
330
27F9
330
27FC
102
}
330
18
100
AcDbEntity
  8
OBJECT
100
AcDbLine
 10
6049.100813767375
 20
5312.210814626165
 30
0.0
 11
5649.100813767375
 21
5312.210814626165
 31
0.0
  0
LINE
  5
27F8
102
{ACAD_REACTORS
330
27F9
330
27FC
102
}
330
18
100
AcDbEntity
  8
OBJECT
100
AcDbLine
 10
5649.100813767375
 20
5312.210814626165
 30
0.0
 11
5649.100813767375
 21
4912.210814626164
 31
0.0
  0
HATCH
  5
27FD
330
18
100
AcDbEntity
  8
OBJECT
100
AcDbHatch
 10
0.0
 20
0.0
 30
0.0
210
0.0
220
0.0
230
1.0
  2
AR-SAND
 70
     0
 71
     1
 91
        1
 92
        1
 93
        6
 72
     1
 10
5999.100813767375
 20
4962.210814626164
 11
5999.100813767375
 21
5262.210814626165
 72
     1
 10
5999.100813767375
 20
5262.210814626165
 11
6049.100813767375
 21
5312.210814626165
 72
     1
 10
6049.100813767375
 20
5312.210814626165
 11
6049.100813767375
 21
4912.210814626164
 72
     1
 10
6049.100813767375
 20
4912.210814626164
 11
5649.100813767375
 21
4912.210814626164
 72
     1
 10
5649.100813767375
 20
4912.210814626164
 11
5699.100813767375
 21
4962.210814626164
 72
     1
 10
5699.100813767375
 20
4962.210814626164
 11
5999.100813767375
 21
4962.210814626164
 97
        6
330
271E
330
27CE
330
271D
330
2723
330
2734
330
2724
 75
     0
 76
     1
 52
0.0
 41
1.0
 77
     0
 78
     4
 53
37.5
 43
4495.511491183036
 44
-193.8746689257996
 45
-1.600031295984045
 46
48.94132373293423
 79
     6
 49
0.0
 49
-38.608
 49
0.0
 49
-43.18
 49
0.0
 49
-41.275
 53
7.499999999999999
 43
4495.511491183036
 44
-193.8746689257996
 45
44.95232831380026
 46
71.68251005683543
 79
     6
 49
0.0
 49
-20.828
 49
0.0
 49
-34.798
 49
0.0
 49
-13.335
 53
327.4999999999999
 43
4464.269491183036
 44
-193.8746689257996
 45
79.09923702414579
 46
0.1437184678545691
 79
     6
 49
0.0
 49
-12.7
 49
0.0
 49
-45.72
 49
0.0
 49
-59.69
 53
317.5
 43
4464.269491183036
 44
-193.8746689257996
 45
76.35564524722972
 46
22.29293232572162
 79
     6
 49
0.0
 49
-6.349999999999999
 49
0.0
 49
-29.97199999999999
 49
0.0
 49
-34.29
 98
        1
 10
10804.23167722552
 20
1683.677365601059
  0
LINE
  5
282A
330
18
100
AcDbEntity
  8
点線
100
AcDbLine
 10
5699.100813767375
 20
4962.210814626164
 30
0.0
 11
5699.100813767375
 21
5262.210814626165
 31
0.0
  0
LINE
  5
282B
330
18
100
AcDbEntity
  8
点線
100
AcDbLine
 10
5699.100813767375
 20
5262.210814626165
 30
0.0
 11
5999.100813767375
 21
5262.210814626165
 31
0.0
  0
LINE
  5
2931
330
18
100
AcDbEntity
  8
OBJECT
 48
10.0
100
AcDbLine
 10
5219.100822530797
 20
4512.210814626164
 30
0.0
 11
5219.100822530794
 21
3512.210814626163
 31
0.0
  0
LINE
  5
2932
330
18
100
AcDbEntity
  8
WUWAGAKI
100
AcDbLine
 10
8907.693455218545
 20
3247.517399764511
 30
0.0
 11
8907.693455218545
 21
6173.667251560635
 31
0.0
  0
LINE
  5
2933
330
18
100
AcDbEntity
  8
WUWAGAKI
100
AcDbLine
 10
4636.974536591627
 20
6173.667251560635
 30
0.0
 11
4636.974536591627
 21
3247.517399764511
 31
0.0
  0
LINE
  5
293E
330
18
100
AcDbEntity
  8
WUWAGAKI
100
AcDbLine
 10
8000.510338878674
 20
3735.997366835883
 30
0.0
 11
8000.510338878674
 21
3447.045629761525
 31
0.0
  0
TEXT
  5
293F
330
18
100
AcDbEntity
  8
WUWAGAKI
100
AcDbText
 10
7793.272311072446
 20
3566.61412607128
 30
0.0
 40
45.0
  1
寸　法
100
AcDbText
  0
TEXT
  5
2940
330
18
100
AcDbEntity
  8
WUWAGAKI
100
AcDbText
 10
8054.846742241505
 20
3568.131771686542
 30
0.0
 40
47.25
  1
300×300×150/150×H
100
AcDbText
  0
LINE
  5
2941
330
18
100
AcDbEntity
  8
WUWAGAKI
100
AcDbLine
 10
7748.393867310166
 20
3735.997366835883
 30
0.0
 11
7748.393867310166
 21
3316.016934206314
 31
0.0
  0
LINE
  5
2942
330
18
100
AcDbEntity
  8
WUWAGAKI
100
AcDbLine
 10
8841.190442410589
 20
3316.016934206314
 30
0.0
 11
8841.190442410589
 21
3735.997366835883
 31
0.0
  0
TEXT
  5
2943
330
18
100
AcDbEntity
  8
WUWAGAKI
100
AcDbText
 10
8054.846742241505
 20
3471.418088509256
 30
0.0
 40
45.0
  1
S＝　1：15
100
AcDbText
  0
LINE
  5
2944
330
18
100
AcDbEntity
  8
WUWAGAKI
100
AcDbLine
 10
7748.393867310166
 20
3447.045629761525
 30
0.0
 11
8841.190442410587
 21
3447.045629761525
 31
0.0
  0
LINE
  5
2945
330
18
100
AcDbEntity
  8
WUWAGAKI
100
AcDbLine
 10
7748.393867310166
 20
3545.560693926131
 30
0.0
 11
8841.190442410587
 21
3545.560693926131
 31
0.0
  0
LINE
  5
2946
330
18
100
AcDbEntity
  8
WUWAGAKI
100
AcDbLine
 10
7748.393867310166
 20
3316.016934206314
 30
0.0
 11
8841.190442410589
 21
3316.016934206314
 31
0.0
  0
TEXT
  5
2947
330
18
100
AcDbEntity
  8
WUWAGAKI
100
AcDbText
 10
7987.099300209639
 20
3347.6245010127
 30
0.0
 40
60.0
  1
㈱　ウ　チ　コ　ン
100
AcDbText
  0
LINE
  5
2948
330
18
100
AcDbEntity
  8
WUWAGAKI
100
AcDbLine
 10
4636.974536591627
 20
3247.517399764511
 30
0.0
 11
8907.693455218545
 21
3247.517399764511
 31
0.0
  0
TEXT
  5
2949
330
18
100
AcDbEntity
  8
WUWAGAKI
100
AcDbText
 10
7820.920068833527
 20
3470.116173079799
 30
0.0
 40
45.0
  1
縮尺
100
AcDbText
  0
LINE
  5
294A
330
18
100
AcDbEntity
  8
WUWAGAKI
100
AcDbLine
 10
8578.908251824902
 20
3545.560693926131
 30
0.0
 11
8578.908251824902
 21
3447.045629761525
 31
0.0
  0
LINE
  5
294B
330
18
100
AcDbEntity
  8
WUWAGAKI
100
AcDbLine
 10
8394.679825062583
 20
3545.560693926131
 30
0.0
 11
8394.679825062583
 21
3447.045629761525
 31
0.0
  0
TEXT
  5
294C
330
18
100
AcDbEntity
  8
WUWAGAKI
100
AcDbText
 10
8421.607600814729
 20
3471.467526020797
 30
0.0
 40
45.0
  1
重量
100
AcDbText
  0
LINE
  5
294E
330
18
100
AcDbEntity
  8
WUWAGAKI
100
AcDbLine
 10
7748.393867310166
 20
3641.467078890746
 30
0.0
 11
8838.558620074826
 21
3641.467078890746
 31
0.0
  0
TEXT
  5
294F
330
18
100
AcDbEntity
  8
WUWAGAKI
100
AcDbText
 10
8054.846742241505
 20
3665.173805912202
 30
0.0
 40
45.0
  1
集水桝
100
AcDbText
  0
LINE
  5
2950
330
18
100
AcDbEntity
  8
WUWAGAKI
100
AcDbLine
 10
7748.393867310166
 20
3641.467078890746
 30
0.0
 11
8838.558620074826
 21
3641.467078890746
 31
0.0
  0
LINE
  5
2951
330
18
100
AcDbEntity
  8
WUWAGAKI
100
AcDbLine
 10
7748.393867310166
 20
3735.997366835883
 30
0.0
 11
8841.190442410589
 21
3735.997366835883
 31
0.0
  0
TEXT
  5
2956
330
18
100
AcDbEntity
  8
WUWAGAKI
100
AcDbText
 10
7795.927522958867
 20
3667.752966108261
 30
0.0
 40
45.0
  1
種　別
100
AcDbText
  0
LINE
  5
2963
330
18
100
AcDbEntity
  8
0
 48
10.0
100
AcDbLine
 10
5519.100813767376
 20
3512.210814626163
 30
0.0
 11
5189.100813767375
 21
3512.210814626163
 31
0.0
  0
SOLID
  5
2964
330
18
100
AcDbEntity
  8
0
  6
ByBlock
 62
     0
 48
10.0
100
AcDbTrace
 10
5225.350813767374
 20
3549.710814626183
 30
0.0
 11
5212.850813767373
 21
3549.710814626183
 31
0.0
 12
5219.100813767372
 22
3512.210814626183
 32
0.0
 13
5219.100813767372
 23
3512.210814626183
 33
0.0
  0
MTEXT
  5
2978
330
18
100
AcDbEntity
  8
0
  6
ByBlock
 62
     0
 48
10.0
100
AcDbMText
 10
5189.100813767375
 20
4012.210814626164
 30
0.0
 40
37.5
 41
0.0
 71
     5
 72
     1
  1
H
 11
0.0000000000000001
 21
1.0
 31
0.0
 73
     1
 44
1.0
  0
LINE
  5
29B2
330
18
100
AcDbEntity
  8
WUWAGAKI
100
AcDbLine
 10
8907.693455218545
 20
6173.667251560635
 30
0.0
 11
4636.974536591627
 21
6173.667251560635
 31
0.0
  0
LINE
  5
29BD
330
18
100
AcDbEntity
  8
OBJECT
 48
10.0
100
AcDbLine
 10
6149.100813767375
 20
5742.210805862743
 30
0.0
 11
5549.100813767375
 21
5742.210805862744
 31
0.0
  0
LINE
  5
29BE
330
18
100
AcDbEntity
  8
OBJECT
 48
10.0
100
AcDbLine
 10
5549.100813767375
 20
5592.210803886214
 30
0.0
 11
6149.100813767375
 21
5592.210803886214
 31
0.0
  0
MTEXT
  5
29BF
330
18
100
AcDbEntity
  8
0
  6
ByBlock
 62
     0
 48
10.0
100
AcDbMText
 10
6074.100813767375
 20
5622.210805862745
 30
0.0
 40
37.5
 41
0.0
 71
     5
 72
     1
  1
150
 73
     1
 44
1.0
  0
LINE
  5
29C1
330
18
100
AcDbEntity
  8
0
 48
10.0
100
AcDbLine
 10
5549.100813767375
 20
5442.210814626164
 30
0.0
 11
5549.100813767375
 21
5772.210814626165
 31
0.0
  0
LINE
  5
29C2
330
18
100
AcDbEntity
  8
0
 48
10.0
100
AcDbLine
 10
5699.100813767375
 20
5442.210814626164
 30
0.0
 11
5699.100813767375
 21
5622.210814626164
 31
0.0
  0
LINE
  5
29C3
330
18
100
AcDbEntity
  8
0
 48
10.0
100
AcDbLine
 10
5999.100813767375
 20
5442.210814626164
 30
0.0
 11
5999.100813767375
 21
5622.210814626164
 31
0.0
  0
LINE
  5
29C4
330
18
100
AcDbEntity
  8
0
 48
10.0
100
AcDbLine
 10
5519.100813767376
 20
4512.210814626164
 30
0.0
 11
5189.100813767375
 21
4512.210814626164
 31
0.0
  0
SOLID
  5
29C5
330
18
100
AcDbEntity
  8
0
  6
ByBlock
 62
     0
 48
10.0
100
AcDbTrace
 10
5225.350813767374
 20
4474.710814626141
 30
0.0
 11
5212.850813767373
 21
4474.710814626141
 31
0.0
 12
5219.100813767372
 22
4512.210814626141
 32
0.0
 13
5219.100813767372
 23
4512.210814626141
 33
0.0
  0
MTEXT
  5
29CC
330
18
100
AcDbEntity
  8
0
  6
ByBlock
 62
     0
 48
10.0
100
AcDbMText
 10
5624.100813767375
 20
5622.210805862745
 30
0.0
 40
37.5
 41
0.0
 71
     5
 72
     1
  1
150
 73
     1
 44
1.0
  0
SOLID
  5
29CD
330
18
100
AcDbEntity
  8
0
  6
ByBlock
 62
     0
 48
10.0
100
AcDbTrace
 10
5586.600825626529
 20
5585.960803886217
 30
0.0
 11
5586.600825626529
 21
5598.460803886218
 31
0.0
 12
5549.100825626529
 22
5592.210803886217
 32
0.0
 13
5549.100825626529
 23
5592.210803886217
 33
0.0
  0
MTEXT
  5
29CE
330
18
100
AcDbEntity
  8
0
  6
ByBlock
 62
     0
 48
10.0
100
AcDbMText
 10
5849.100813767375
 20
5622.210814626165
 30
0.0
 40
37.5
 41
0.0
 71
     5
 72
     1
  1
300
 73
     1
 44
1.0
  0
SOLID
  5
29CF
330
18
100
AcDbEntity
  8
0
  6
ByBlock
 62
     0
 48
10.0
100
AcDbTrace
 10
5661.600813767375
 20
5585.960814626163
 30
0.0
 11
5661.600813767375
 21
5598.460814626163
 31
0.0
 12
5699.100813767375
 22
5592.210814626164
 32
0.0
 13
5699.100813767375
 23
5592.210814626164
 33
0.0
  0
SOLID
  5
29D0
330
18
100
AcDbEntity
  8
0
  6
ByBlock
 62
     0
 48
10.0
100
AcDbTrace
 10
5736.600813767375
 20
5585.960814626163
 30
0.0
 11
5736.600813767375
 21
5598.460814626163
 31
0.0
 12
5699.100813767375
 22
5592.210814626164
 32
0.0
 13
5699.100813767375
 23
5592.210814626164
 33
0.0
  0
SOLID
  5
29D1
330
18
100
AcDbEntity
  8
0
  6
ByBlock
 62
     0
 48
10.0
100
AcDbTrace
 10
6036.600813767378
 20
5585.960814626163
 30
0.0
 11
6036.600813767378
 21
5598.460814626163
 31
0.0
 12
5999.100813767378
 22
5592.210814626164
 32
0.0
 13
5999.100813767378
 23
5592.210814626164
 33
0.0
  0
SOLID
  5
29D2
330
18
100
AcDbEntity
  8
0
  6
ByBlock
 62
     0
 48
10.0
100
AcDbTrace
 10
5961.600878207071
 20
5585.960814626163
 30
0.0
 11
5961.600878207071
 21
5598.460814626163
 31
0.0
 12
5999.10087820707
 22
5592.210814626164
 32
0.0
 13
5999.10087820707
 23
5592.210814626164
 33
0.0
  0
SOLID
  5
29D3
330
18
100
AcDbEntity
  8
0
  6
ByBlock
 62
     0
 48
10.0
100
AcDbTrace
 10
5586.600813767397
 20
5735.960814626166
 30
0.0
 11
5586.600813767397
 21
5748.460814626167
 31
0.0
 12
5549.100813767397
 22
5742.210814626168
 32
0.0
 13
5549.100813767397
 23
5742.210814626168
 33
0.0
  0
MTEXT
  5
29D4
330
18
100
AcDbEntity
  8
0
  6
ByBlock
 62
     0
 48
10.0
100
AcDbMText
 10
5849.100813767375
 20
5772.210814626165
 30
0.0
 40
37.5
 41
0.0
 71
     5
 72
     1
  1
600
 73
     1
 44
1.0
  0
LINE
  5
29D8
330
18
100
AcDbEntity
  8
0
 48
10.0
100
AcDbLine
 10
6149.100813767375
 20
5442.210814626164
 30
0.0
 11
6149.100813767375
 21
5772.210814626165
 31
0.0
  0
SOLID
  5
29E1
330
18
100
AcDbEntity
  8
0
  6
ByBlock
 62
     0
 48
10.0
100
AcDbTrace
 10
6111.60080190822
 20
5585.960803886217
 30
0.0
 11
6111.60080190822
 21
5598.460803886218
 31
0.0
 12
6149.100801908221
 22
5592.210803886217
 32
0.0
 13
6149.100801908221
 23
5592.210803886217
 33
0.0
  0
SOLID
  5
29E8
330
18
100
AcDbEntity
  8
0
  6
ByBlock
 62
     0
 48
10.0
100
AcDbTrace
 10
6111.600813767353
 20
5735.960814626166
 30
0.0
 11
6111.600813767353
 21
5748.460814626167
 31
0.0
 12
6149.100813767354
 22
5742.210814626168
 32
0.0
 13
6149.100813767354
 23
5742.210814626168
 33
0.0
  0
SOLID
  5
2A16
330
18
100
AcDbEntity
  8
0
  6
ByBlock
 62
     0
 48
10.0
100
AcDbTrace
 10
5375.350813767378
 20
5299.710814626167
 30
0.0
 11
5362.850813767378
 21
5299.710814626167
 31
0.0
 12
5369.100813767376
 22
5262.210814626167
 32
0.0
 13
5369.100813767376
 23
5262.210814626167
 33
0.0
  0
LINE
  5
2A17
330
18
100
AcDbEntity
  8
OBJECT
 48
10.0
100
AcDbLine
 10
5369.100824507325
 20
4812.210814626165
 30
0.0
 11
5369.100824507325
 21
5412.210814626164
 31
0.0
  0
LINE
  5
2A18
330
18
100
AcDbEntity
  8
OBJECT
 48
10.0
100
AcDbLine
 10
5219.100822530797
 20
5412.210814626164
 30
0.0
 11
5219.100822530795
 21
4812.210814626165
 31
0.0
  0
SOLID
  5
2A19
330
18
100
AcDbEntity
  8
0
  6
ByBlock
 62
     0
 48
10.0
100
AcDbTrace
 10
5375.350813767378
 20
4924.710814626164
 30
0.0
 11
5362.850813767378
 21
4924.710814626164
 31
0.0
 12
5369.100813767376
 22
4962.210814626164
 32
0.0
 13
5369.100813767376
 23
4962.210814626164
 33
0.0
  0
LINE
  5
2A1A
330
18
100
AcDbEntity
  8
0
 48
10.0
100
AcDbLine
 10
5519.100813767376
 20
4812.210814626165
 30
0.0
 11
5189.100813767375
 21
4812.210814626165
 31
0.0
  0
MTEXT
  5
2A1B
330
18
100
AcDbEntity
  8
0
  6
ByBlock
 62
     0
 48
10.0
100
AcDbMText
 10
5339.100822530795
 20
4887.210814626165
 30
0.0
 40
37.5
 41
0.0
 71
     5
 72
     1
  1
150
 11
0.0000000000000001
 21
1.0
 31
0.0
 73
     1
 44
1.0
  0
SOLID
  5
2A1C
330
18
100
AcDbEntity
  8
0
  6
ByBlock
 62
     0
 48
10.0
100
AcDbTrace
 10
5375.350824507322
 20
4849.710826485319
 30
0.0
 11
5362.850824507322
 21
4849.710826485319
 31
0.0
 12
5369.100824507323
 22
4812.210826485319
 32
0.0
 13
5369.100824507323
 23
4812.210826485319
 33
0.0
  0
SOLID
  5
2A1D
330
18
100
AcDbEntity
  8
0
  6
ByBlock
 62
     0
 48
10.0
100
AcDbTrace
 10
5225.350813767374
 20
4849.710814626186
 30
0.0
 11
5212.850813767373
 21
4849.710814626186
 31
0.0
 12
5219.100813767372
 22
4812.210814626187
 32
0.0
 13
5219.100813767372
 23
4812.210814626187
 33
0.0
  0
LINE
  5
2A1E
330
18
100
AcDbEntity
  8
0
 48
10.0
100
AcDbLine
 10
5519.100813767376
 20
4962.210814626164
 30
0.0
 11
5339.100813767375
 21
4962.210814626164
 31
0.0
  0
LINE
  5
2A1F
330
18
100
AcDbEntity
  8
0
 48
10.0
100
AcDbLine
 10
5519.100813767376
 20
5262.210814626165
 30
0.0
 11
5339.100813767375
 21
5262.210814626165
 31
0.0
  0
MTEXT
  5
2A20
330
18
100
AcDbEntity
  8
0
  6
ByBlock
 62
     0
 48
10.0
100
AcDbMText
 10
5339.100813767374
 20
5112.210814626164
 30
0.0
 40
37.5
 41
0.0
 71
     5
 72
     1
  1
300
 11
0.0000000000000001
 21
1.0
 31
0.0
 73
     1
 44
1.0
  0
MTEXT
  5
2A21
330
18
100
AcDbEntity
  8
0
  6
ByBlock
 62
     0
 48
10.0
100
AcDbMText
 10
5189.100813767375
 20
5112.210814626164
 30
0.0
 40
37.5
 41
0.0
 71
     5
 72
     1
  1
600
 11
0.0000000000000001
 21
1.0
 31
0.0
 73
     1
 44
1.0
  0
SOLID
  5
2A22
330
18
100
AcDbEntity
  8
0
  6
ByBlock
 62
     0
 48
10.0
100
AcDbTrace
 10
5375.350813767378
 20
4999.710814626165
 30
0.0
 11
5362.850813767378
 21
4999.710814626165
 31
0.0
 12
5369.100813767376
 22
4962.210814626164
 32
0.0
 13
5369.100813767376
 23
4962.210814626164
 33
0.0
  0
SOLID
  5
2A23
330
18
100
AcDbEntity
  8
0
  6
ByBlock
 62
     0
 48
10.0
100
AcDbTrace
 10
5375.350813767378
 20
5224.71087906586
 30
0.0
 11
5362.850813767378
 21
5224.71087906586
 31
0.0
 12
5369.100813767376
 22
5262.210879065859
 32
0.0
 13
5369.100813767376
 23
5262.210879065859
 33
0.0
  0
LINE
  5
2A24
330
18
100
AcDbEntity
  8
0
 48
10.0
100
AcDbLine
 10
5519.100813767376
 20
5412.210814626164
 30
0.0
 11
5189.100813767375
 21
5412.210814626164
 31
0.0
  0
SOLID
  5
2A25
330
18
100
AcDbEntity
  8
0
  6
ByBlock
 62
     0
 48
10.0
100
AcDbTrace
 10
5375.350824507322
 20
5374.71080276701
 30
0.0
 11
5362.850824507322
 21
5374.71080276701
 31
0.0
 12
5369.100824507323
 22
5412.21080276701
 32
0.0
 13
5369.100824507323
 23
5412.21080276701
 33
0.0
  0
MTEXT
  5
2A26
330
18
100
AcDbEntity
  8
0
  6
ByBlock
 62
     0
 48
10.0
100
AcDbMText
 10
5339.100822530795
 20
5337.210814626164
 30
0.0
 40
37.5
 41
0.0
 71
     5
 72
     1
  1
150
 11
0.0000000000000001
 21
1.0
 31
0.0
 73
     1
 44
1.0
  0
SOLID
  5
2A27
330
18
100
AcDbEntity
  8
0
  6
ByBlock
 62
     0
 48
10.0
100
AcDbTrace
 10
5225.350813767374
 20
5374.710814626142
 30
0.0
 11
5212.850813767373
 21
5374.710814626142
 31
0.0
 12
5219.100813767372
 22
5412.210814626142
 32
0.0
 13
5219.100813767372
 23
5412.210814626142
 33
0.0
  0
MTEXT
  5
2A32
330
18
100
AcDbEntity
  8
0
  6
ByBlock
 62
     0
 48
10.0
100
AcDbMText
 10
6336.650626161657
 20
4842.210814626164
 30
0.0
 40
30.0
 41
0.0
 71
     5
 72
     1
  1
受枠
 73
     1
 44
1.0
  0
SOLID
  5
2A33
330
18
100
AcDbEntity
  8
0
  6
ByBlock
 62
     0
 48
10.0
100
AcDbTrace
 10
6086.009011933194
 20
4903.095036647695
 30
0.0
 11
6081.057505660942
 21
4891.617554971133
 31
0.0
 12
6049.100813767375
 22
4912.210814626164
 32
0.0
 13
6049.100813767375
 23
4912.210814626164
 33
0.0
  0
LINE
  5
2A34
330
18
100
AcDbEntity
  8
WUWAGAKI
 48
10.0
100
AcDbLine
 10
6066.354273717729
 20
4904.870472689884
 30
0.0
 11
6284.150626161656
 21
4812.210814626165
 31
0.0
210
0.0
220
0.0
230
-1.0
1001
ACAD
1000
DSTYLE
1002
{
1070
    78
1070
     8
1070
   270
1070
     8
1070
   140
1040
2.5
1070
    74
1070
     0
1070
   172
1070
     1
1070
    73
1070
     0
1070
    77
1070
     1
1070
    40
1040
10.0
1070
   147
1040
0.625
1070
    42
1040
0.625
1070
    44
1040
1.25
1070
    43
1040
3.75
1070
   141
1040
2.5
1070
    41
1040
2.5
1070
   273
1070
     8
1070
   274
1070
     4
1070
   143
1040
0.0394
1070
   171
1070
     4
1002
}
  0
LINE
  5
2A35
330
18
100
AcDbEntity
  8
OBJECT
 48
10.0
100
AcDbLine
 10
6284.150626161656
 20
4812.210814626165
 30
0.0
 11
6389.150626161656
 21
4812.210814626165
 31
0.0
  0
MTEXT
  5
2A40
330
18
100
AcDbEntity
  8
0
  6
ByBlock
 62
     0
 48
10.0
100
AcDbMText
 10
6401.650626161657
 20
5052.91215221615
 30
0.0
 40
30.0
 41
0.0
 71
     5
 72
     1
  1
グレーチング
 73
     1
 44
1.0
  0
LINE
  5
2A41
330
18
100
AcDbEntity
  8
OBJECT
 48
10.0
100
AcDbLine
 10
6284.150626161656
 20
5022.91215221615
 30
0.0
 11
6529.150626161656
 21
5022.91215221615
 31
0.0
  0
LINE
  5
2A42
330
18
100
AcDbEntity
  8
WUWAGAKI
 48
10.0
100
AcDbLine
 10
5933.554273717731
 20
5172.070472689885
 30
0.0
 11
6284.150626161657
 21
5022.91215221615
 31
0.0
210
0.0
220
0.0
230
-1.0
1001
ACAD
1000
DSTYLE
1002
{
1070
    78
1070
     8
1070
   270
1070
     8
1070
   140
1040
2.5
1070
    74
1070
     0
1070
   172
1070
     1
1070
    73
1070
     0
1070
    77
1070
     1
1070
    40
1040
10.0
1070
   147
1040
0.625
1070
    42
1040
0.625
1070
    44
1040
1.25
1070
    43
1040
3.75
1070
   141
1040
2.5
1070
    41
1040
2.5
1070
   273
1070
     8
1070
   274
1070
     4
1070
   143
1040
0.0394
1070
   171
1070
     4
1002
}
  0
SOLID
  5
2A43
330
18
100
AcDbEntity
  8
0
  6
ByBlock
 62
     0
 48
10.0
100
AcDbTrace
 10
5953.209011933195
 20
5170.295036647695
 30
0.0
 11
5948.257505660944
 21
5158.817554971133
 31
0.0
 12
5916.300813767376
 22
5179.410814626165
 32
0.0
 13
5916.300813767376
 23
5179.410814626165
 33
0.0
  0
VIEWPORT
  5
298
330
15
100
AcDbEntity
 67
     1
  8
0
100
AcDbViewport
 10
291.7632241813602
 20
148.5
 30
0.0
 40
583.5264483627204
 41
297.0
 68
     1
 69
     1
 12
291.7632241813602
 22
148.5
 13
0.0
 23
0.0
 14
10.0
 24
10.0
 15
10.0
 25
10.0
 16
0.0
 26
0.0
 36
1.0
 17
0.0
 27
0.0
 37
0.0
 42
50.0
 43
0.0
 44
0.0
 45
297.0
 50
0.0
 51
0.0
 72
   100
 90
    32800
  1

281
     0
 71
     1
 74
     0
110
0.0
120
0.0
130
0.0
111
1.0
121
0.0
131
0.0
112
0.0
122
1.0
132
0.0
 79
     0
146
0.0
  0
ENDSEC
  0
SECTION
  2
OBJECTS
  0
DICTIONARY
  5
C
330
0
100
AcDbDictionary
281
     1
  3
ACAD_GROUP
350
D
  3
ACAD_LAYOUT
350
15FE
  3
ACAD_MLINESTYLE
350
1B
  3
ACAD_PLOTSETTINGS
350
15FF
  3
ACAD_PLOTSTYLENAME
350
15FC
  3
ACDBVARIABLEDICTIONARY
350
B2A
  3
DRAWINGVARIABLESDICT
350
1212
  0
DICTIONARY
  5
D
102
{ACAD_REACTORS
330
C
102
}
330
C
100
AcDbDictionary
281
     1
  3
*A1
350
1DE1
  3
*A2
350
2483
  3
*A3
350
2486
  3
*A4
350
27F9
  3
*A5
350
27FC
  0
DICTIONARY
  5
15FE
102
{ACAD_REACTORS
330
C
102
}
330
C
100
AcDbDictionary
281
     1
  3
Model
350
1600
  3
ﾚｲｱｳﾄ1
350
1601
  0
DICTIONARY
  5
1B
102
{ACAD_REACTORS
330
C
102
}
330
C
100
AcDbDictionary
281
     1
  3
STANDARD
350
1C
  0
DICTIONARY
  5
15FF
102
{ACAD_REACTORS
330
C
102
}
330
C
100
AcDbDictionary
281
     1
  0
ACDBDICTIONARYWDFLT
  5
15FC
102
{ACAD_REACTORS
330
C
102
}
330
C
100
AcDbDictionary
281
     1
  3
Normal
350
15FD
100
AcDbDictionaryWithDefault
340
15FD
  0
DICTIONARY
  5
B2A
102
{ACAD_REACTORS
330
C
102
}
330
C
100
AcDbDictionary
281
     1
  3
SORTENTS
350
B2B
  0
DICTIONARY
  5
1212
102
{ACAD_REACTORS
330
C
102
}
330
C
100
AcDbDictionary
281
     1
1001
DRAWINGVARIABLESXDATA
1000
POLARANG
1000
0.785398
1000
POLARMODE
1000
0
  0
GROUP
  5
1DE1
102
{ACAD_REACTORS
330
D
102
}
330
D
100
AcDbGroup
300

 70
     1
 71
     1
  0
GROUP
  5
2483
102
{ACAD_REACTORS
330
D
102
}
330
D
100
AcDbGroup
300

 70
     1
 71
     1
  0
GROUP
  5
2486
102
{ACAD_REACTORS
330
D
102
}
330
D
100
AcDbGroup
300

 70
     1
 71
     1
  0
GROUP
  5
27F9
102
{ACAD_REACTORS
330
D
102
}
330
D
100
AcDbGroup
300

 70
     1
 71
     1
340
27F8
340
27F7
  0
GROUP
  5
27FC
102
{ACAD_REACTORS
330
D
102
}
330
D
100
AcDbGroup
300

 70
     1
 71
     1
340
274B
340
2746
340
2748
340
2747
340
2718
340
27F7
340
27A3
340
27A4
340
27A6
340
27A5
340
2798
340
2762
340
2760
340
2761
340
2719
340
271A
340
27F8
340
275B
340
275A
340
2759
340
2758
340
2757
340
2756
340
2766
340
2765
340
2764
340
2763
340
275F
340
275E
340
275D
340
275C
340
2749
340
274A
340
2776
340
2775
340
2777
340
2774
340
2779
340
2778
340
276E
340
276F
340
2772
340
2773
340
276A
340
2769
340
2767
340
2768
340
2771
340
2770
340
278F
340
278E
340
278D
340
278C
340
27C0
340
27B4
340
27B1
340
27B0
340
27AF
340
27AE
340
278B
340
278A
340
2789
340
2788
340
2787
340
2786
340
2785
340
2784
340
2783
340
2782
340
2781
340
2780
340
277F
340
27A0
340
27BD
340
27BC
340
27BA
340
27BB
340
27BE
340
27BF
340
27B7
340
27B6
340
27B5
340
27B3
340
27B2
340
27A2
340
27A1
340
279F
340
27C9
340
27C8
340
27C5
340
27CD
340
27B8
340
27B9
  0
LAYOUT
  5
1600
102
{ACAD_REACTORS
330
15FE
102
}
330
15FE
100
AcDbPlotSettings
  1

  2
Canon LBP3800 LIPSLX
  4
A4
  6

 40
5.873749732971191
 41
5.873747825622558
 42
5.873748779296875
 43
5.873748779296875
 44
209.9733276367187
 45
296.9259948730469
 46
0.0
 47
0.0
 48
0.0
 49
0.0
140
0.0
141
0.0
142
1.0
143
1.0
 70
 11952
 72
     1
 73
     1
 74
     0
  7

 75
     0
147
1.0
148
-850.7473156447138
149
-3242.888684998073
100
AcDbLayout
  1
Model
 70
     1
 71
     0
 10
0.0
 20
0.0
 11
12.0
 21
9.0
 12
0.0
 22
0.0
 32
0.0
 14
0.0
 24
0.0
 34
0.0
 15
0.0
 25
0.0
 35
0.0
146
0.0
 13
0.0
 23
0.0
 33
0.0
 16
1.0
 26
0.0
 36
0.0
 17
0.0
 27
1.0
 37
0.0
 76
     0
330
18
  0
LAYOUT
  5
1601
102
{ACAD_REACTORS
330
15FE
102
}
330
15FE
100
AcDbPlotSettings
  1

  2
Canon LBP3800 LIPSLX
  4

  6

 40
0.0
 41
0.0
 42
0.0
 43
0.0
 44
0.0
 45
0.0
 46
0.0
 47
0.0
 48
0.0
 49
0.0
140
0.0
141
0.0
142
1.0
143
1.0
 70
   688
 72
     0
 73
     0
 74
     5
  7

 75
    16
147
1.0
148
0.0
149
0.0
100
AcDbLayout
  1
ﾚｲｱｳﾄ1
 70
     1
 71
     1
 10
0.0
 20
0.0
 11
420.0
 21
297.0
 12
0.0
 22
0.0
 32
0.0
 14
1.000000000000000E+20
 24
1.000000000000000E+20
 34
1.000000000000000E+20
 15
-1.000000000000000E+20
 25
-1.000000000000000E+20
 35
-1.000000000000000E+20
146
0.0
 13
0.0
 23
0.0
 33
0.0
 16
1.0
 26
0.0
 36
0.0
 17
0.0
 27
1.0
 37
0.0
 76
     0
330
15
331
298
  0
MLINESTYLE
  5
1C
102
{ACAD_REACTORS
330
1B
102
}
330
1B
100
AcDbMlineStyle
  2
STANDARD
 70
     0
  3

 62
   256
 51
90.0
 52
90.0
 71
     2
 49
0.5
 62
   256
  6
BYLAYER
 49
-0.5
 62
   256
  6
BYLAYER
  0
ACDBPLACEHOLDER
  5
15FD
102
{ACAD_REACTORS
330
15FC
102
}
330
15FC
  0
DICTIONARYVAR
  5
B2B
102
{ACAD_REACTORS
330
B2A
102
}
330
B2A
100
DictionaryVariables
280
     0
  1
96
  0
ENDSEC
  0
EOF
