  0
SECTION
  2
HEADER
  9
$ACADVER
  1
AC1015
  9
$ACADMAINTVER
 70
     6
  9
$DWGCODEPAGE
  3
ANSI_932
  9
$INSBASE
 10
0.0
 20
0.0
 30
0.0
  9
$EXTMIN
 10
4522.895458060821
 20
-2313.027599330762
 30
0.0
  9
$EXTMAX
 10
8793.61437668774
 20
613.1222524653613
 30
0.0
  9
$LIMMIN
 10
0.0
 20
0.0
  9
$LIMMAX
 10
4200.0
 20
2970.0
  9
$ORTHOMODE
 70
     0
  9
$REGENMODE
 70
     1
  9
$FILLMODE
 70
     1
  9
$QTEXTMODE
 70
     0
  9
$MIRRTEXT
 70
     1
  9
$LTSCALE
 40
3.0
  9
$ATTMODE
 70
     1
  9
$TEXTSIZE
 40
2.5
  9
$TRACEWID
 40
1.0
  9
$TEXTSTYLE
  7
STANDARD
  9
$CLAYER
  8
OBJECT
  9
$CELTYPE
  6
BYLAYER
  9
$CECOLOR
 62
   256
  9
$CELTSCALE
 40
1.0
  9
$DISPSILH
 70
     0
  9
$DIMSCALE
 40
15.0
  9
$DIMASZ
 40
2.5
  9
$DIMEXO
 40
0.625
  9
$DIMDLI
 40
3.75
  9
$DIMRND
 40
0.0
  9
$DIMDLE
 40
0.0
  9
$DIMEXE
 40
1.25
  9
$DIMTP
 40
0.0
  9
$DIMTM
 40
0.0
  9
$DIMTXT
 40
2.5
  9
$DIMCEN
 40
2.5
  9
$DIMTSZ
 40
0.0
  9
$DIMTOL
 70
     0
  9
$DIMLIM
 70
     0
  9
$DIMTIH
 70
     0
  9
$DIMTOH
 70
     0
  9
$DIMSE1
 70
     0
  9
$DIMSE2
 70
     0
  9
$DIMTAD
 70
     1
  9
$DIMZIN
 70
     8
  9
$DIMBLK
  1

  9
$DIMASO
 70
     1
  9
$DIMSHO
 70
     1
  9
$DIMPOST
  1

  9
$DIMAPOST
  1

  9
$DIMALT
 70
     0
  9
$DIMALTD
 70
     4
  9
$DIMALTF
 40
0.0394
  9
$DIMLFAC
 40
1.0
  9
$DIMTOFL
 70
     1
  9
$DIMTVP
 40
0.0
  9
$DIMTIX
 70
     0
  9
$DIMSOXD
 70
     0
  9
$DIMSAH
 70
     0
  9
$DIMBLK1
  1

  9
$DIMBLK2
  1

  9
$DIMSTYLE
  2
STANDARD
  9
$DIMCLRD
 70
     0
  9
$DIMCLRE
 70
     0
  9
$DIMCLRT
 70
     0
  9
$DIMTFAC
 40
1.0
  9
$DIMGAP
 40
0.625
  9
$DIMJUST
 70
     0
  9
$DIMSD1
 70
     0
  9
$DIMSD2
 70
     0
  9
$DIMTOLJ
 70
     1
  9
$DIMTZIN
 70
     0
  9
$DIMALTZ
 70
     0
  9
$DIMALTTZ
 70
     0
  9
$DIMUPT
 70
     0
  9
$DIMDEC
 70
     4
  9
$DIMTDEC
 70
     4
  9
$DIMALTU
 70
     8
  9
$DIMALTTD
 70
     4
  9
$DIMTXSTY
  7
STANDARD
  9
$DIMAUNIT
 70
     0
  9
$DIMADEC
 70
     0
  9
$DIMALTRND
 40
0.0
  9
$DIMAZIN
 70
     0
  9
$DIMDSEP
 70
    46
  9
$DIMATFIT
 70
     3
  9
$DIMFRAC
 70
     0
  9
$DIMLDRBLK
  1

  9
$DIMLUNIT
 70
     6
  9
$DIMLWD
 70
    -2
  9
$DIMLWE
 70
    -2
  9
$DIMTMOVE
 70
     0
  9
$LUNITS
 70
     2
  9
$LUPREC
 70
     4
  9
$SKETCHINC
 40
1.0
  9
$FILLETRAD
 40
50.0
  9
$AUNITS
 70
     0
  9
$AUPREC
 70
     0
  9
$MENU
  1
acad
  9
$ELEVATION
 40
0.0
  9
$PELEVATION
 40
0.0
  9
$THICKNESS
 40
0.0
  9
$LIMCHECK
 70
     0
  9
$CHAMFERA
 40
10.0
  9
$CHAMFERB
 40
10.0
  9
$CHAMFERC
 40
20.0
  9
$CHAMFERD
 40
0.0
  9
$SKPOLY
 70
     0
  9
$TDCREATE
 40
2452179.387794213
  9
$TDUCREATE
 40
2452179.012794213
  9
$TDUPDATE
 40
2454544.763409097
  9
$TDUUPDATE
 40
2454544.388409097
  9
$TDINDWG
 40
1.0019459954
  9
$TDUSRTIMER
 40
1.0019459954
  9
$USRTIMER
 70
     1
  9
$ANGBASE
 50
0.0
  9
$ANGDIR
 70
     0
  9
$PDMODE
 70
     0
  9
$PDSIZE
 40
0.0
  9
$PLINEWID
 40
0.0
  9
$SPLFRAME
 70
     0
  9
$SPLINETYPE
 70
     6
  9
$SPLINESEGS
 70
     8
  9
$HANDSEED
  5
17FC
  9
$SURFTAB1
 70
     6
  9
$SURFTAB2
 70
     6
  9
$SURFTYPE
 70
     6
  9
$SURFU
 70
     6
  9
$SURFV
 70
     6
  9
$UCSBASE
  2

  9
$UCSNAME
  2

  9
$UCSORG
 10
0.0
 20
0.0
 30
0.0
  9
$UCSXDIR
 10
1.0
 20
0.0
 30
0.0
  9
$UCSYDIR
 10
0.0
 20
1.0
 30
0.0
  9
$UCSORTHOREF
  2

  9
$UCSORTHOVIEW
 70
     0
  9
$UCSORGTOP
 10
0.0
 20
0.0
 30
0.0
  9
$UCSORGBOTTOM
 10
0.0
 20
0.0
 30
0.0
  9
$UCSORGLEFT
 10
0.0
 20
0.0
 30
0.0
  9
$UCSORGRIGHT
 10
0.0
 20
0.0
 30
0.0
  9
$UCSORGFRONT
 10
0.0
 20
0.0
 30
0.0
  9
$UCSORGBACK
 10
0.0
 20
0.0
 30
0.0
  9
$PUCSBASE
  2

  9
$PUCSNAME
  2

  9
$PUCSORG
 10
0.0
 20
0.0
 30
0.0
  9
$PUCSXDIR
 10
1.0
 20
0.0
 30
0.0
  9
$PUCSYDIR
 10
0.0
 20
1.0
 30
0.0
  9
$PUCSORTHOREF
  2

  9
$PUCSORTHOVIEW
 70
     0
  9
$PUCSORGTOP
 10
0.0
 20
0.0
 30
0.0
  9
$PUCSORGBOTTOM
 10
0.0
 20
0.0
 30
0.0
  9
$PUCSORGLEFT
 10
0.0
 20
0.0
 30
0.0
  9
$PUCSORGRIGHT
 10
0.0
 20
0.0
 30
0.0
  9
$PUCSORGFRONT
 10
0.0
 20
0.0
 30
0.0
  9
$PUCSORGBACK
 10
0.0
 20
0.0
 30
0.0
  9
$USERI1
 70
     0
  9
$USERI2
 70
     0
  9
$USERI3
 70
     0
  9
$USERI4
 70
     0
  9
$USERI5
 70
     0
  9
$USERR1
 40
0.0
  9
$USERR2
 40
0.0
  9
$USERR3
 40
0.0
  9
$USERR4
 40
0.0
  9
$USERR5
 40
0.0
  9
$WORLDVIEW
 70
     1
  9
$SHADEDGE
 70
     3
  9
$SHADEDIF
 70
    70
  9
$TILEMODE
 70
     1
  9
$MAXACTVP
 70
    48
  9
$PINSBASE
 10
0.0
 20
0.0
 30
0.0
  9
$PLIMCHECK
 70
     0
  9
$PEXTMIN
 10
28.51784982681273
 20
19.82258291244505
 30
0.0
  9
$PEXTMAX
 10
256.6606484413147
 20
178.4032462120056
 30
0.0
  9
$PLIMMIN
 10
-5.873748779296875
 20
-5.873749732971191
  9
$PLIMMAX
 10
291.05224609375
 20
204.0995779037475
  9
$UNITMODE
 70
     0
  9
$VISRETAIN
 70
     1
  9
$PLINEGEN
 70
     0
  9
$PSLTSCALE
 70
     1
  9
$TREEDEPTH
 70
  3020
  9
$CMLSTYLE
  2
STANDARD
  9
$CMLJUST
 70
     0
  9
$CMLSCALE
 40
20.0
  9
$PROXYGRAPHICS
 70
     1
  9
$MEASUREMENT
 70
     1
  9
$CELWEIGHT
370
    -1
  9
$ENDCAPS
280
     0
  9
$JOINSTYLE
280
     0
  9
$LWDISPLAY
290
     0
  9
$INSUNITS
 70
     0
  9
$HYPERLINKBASE
  1

  9
$STYLESHEET
  1

  9
$XEDIT
290
     1
  9
$CEPSNTYPE
380
     0
  9
$PSTYLEMODE
290
     1
  9
$FINGERPRINTGUID
  2
{5FA71241-E43D-4C21-9395-2A756D44B18F}
  9
$VERSIONGUID
  2
{93D563D3-51C0-4EA7-AFBD-460AF0BD62E3}
  9
$EXTNAMES
290
     1
  9
$PSVPSCALE
 40
0.0
  9
$OLESTARTUP
290
     0
  0
ENDSEC
  0
SECTION
  2
CLASSES
  0
CLASS
  1
LWPOLYLINE
  2
AcDbPolyline
  3
AutoCAD 2000
 90
    32768
280
     0
281
     1
  0
CLASS
  1
ACDBDICTIONARYWDFLT
  2
AcDbDictionaryWithDefault
  3
AutoCAD 2000
 90
        0
280
     0
281
     0
  0
CLASS
  1
ACDBPLACEHOLDER
  2
AcDbPlaceHolder
  3
AutoCAD 2000
 90
        0
280
     0
281
     0
  0
CLASS
  1
LAYOUT
  2
AcDbLayout
  3
AutoCAD 2000
 90
        0
280
     0
281
     0
  0
ENDSEC
  0
SECTION
  2
TABLES
  0
TABLE
  2
VPORT
  5
8
330
0
100
AcDbSymbolTable
 70
     2
  0
VPORT
  5
17FB
330
8
100
AcDbSymbolTableRecord
100
AcDbViewportTableRecord
  2
*Active
 70
     0
 10
0.0
 20
0.0
 11
1.0
 21
1.0
 12
6540.846272407616
 22
-813.6457731906675
 13
0.0
 23
0.0
 14
10.0
 24
10.0
 15
10.0
 25
10.0
 16
0.0
 26
0.0
 36
1.0
 17
0.0
 27
0.0
 37
0.0
 40
3271.602466115646
 41
1.731203007518796
 42
50.0
 43
0.0
 44
0.0
 50
0.0
 51
0.0
 71
     0
 72
   100
 73
     1
 74
     1
 75
     0
 76
     0
 77
     0
 78
     0
281
     0
 65
     1
110
0.0
120
0.0
130
0.0
111
1.0
121
0.0
131
0.0
112
0.0
122
1.0
132
0.0
 79
     0
146
0.0
  0
ENDTAB
  0
TABLE
  2
LTYPE
  5
5
330
0
100
AcDbSymbolTable
 70
    46
  0
LTYPE
  5
12
330
5
100
AcDbSymbolTableRecord
100
AcDbLinetypeTableRecord
  2
BYBLOCK
 70
     0
  3

 72
    65
 73
     0
 40
0.0
  0
LTYPE
  5
13
330
5
100
AcDbSymbolTableRecord
100
AcDbLinetypeTableRecord
  2
BYLAYER
 70
     0
  3

 72
    65
 73
     0
 40
0.0
  0
LTYPE
  5
14
330
5
100
AcDbSymbolTableRecord
100
AcDbLinetypeTableRecord
  2
CONTINUOUS
 70
     0
  3
Solid line
 72
    65
 73
     0
 40
0.0
  0
LTYPE
  5
BC
330
5
100
AcDbSymbolTableRecord
100
AcDbLinetypeTableRecord
  2
ACAD_ISO02W100
 70
     0
  3
ISO dash __ __ __ __ __ __ __ __ __ __ __ __ __
 72
    65
 73
     2
 40
15.0
 49
12.0
 74
     0
 49
-3.0
 74
     0
  0
LTYPE
  5
BD
330
5
100
AcDbSymbolTableRecord
100
AcDbLinetypeTableRecord
  2
ACAD_ISO03W100
 70
     0
  3
ISO dash space __    __    __    __    __    __
 72
    65
 73
     2
 40
30.0
 49
12.0
 74
     0
 49
-18.0
 74
     0
  0
LTYPE
  5
BE
330
5
100
AcDbSymbolTableRecord
100
AcDbLinetypeTableRecord
  2
ACAD_ISO04W100
 70
     0
  3
ISO long-dash dot ____ . ____ . ____ . ____ . _
 72
    65
 73
     4
 40
30.5
 49
24.0
 74
     0
 49
-3.0
 74
     0
 49
0.5
 74
     0
 49
-3.0
 74
     0
  0
LTYPE
  5
BF
330
5
100
AcDbSymbolTableRecord
100
AcDbLinetypeTableRecord
  2
ACAD_ISO05W100
 70
     0
  3
ISO long-dash double-dot ____ .. ____ .. ____ .
 72
    65
 73
     8
 40
37.5
 49
24.0
 74
     0
 49
-3.0
 74
     0
 49
0.5
 74
     0
 49
-3.0
 74
     0
 49
0.5
 74
     0
 49
-3.0
 74
     0
 49
0.5
 74
     0
 49
-3.0
 74
     0
  0
LTYPE
  5
C0
330
5
100
AcDbSymbolTableRecord
100
AcDbLinetypeTableRecord
  2
ACAD_ISO06W100
 70
     0
  3
ISO long-dash triple-dot ____ ... ____ ... ____
 72
    65
 73
     8
 40
37.5
 49
24.0
 74
     0
 49
-3.0
 74
     0
 49
0.5
 74
     0
 49
-3.0
 74
     0
 49
0.5
 74
     0
 49
-3.0
 74
     0
 49
0.5
 74
     0
 49
-3.0
 74
     0
  0
LTYPE
  5
C1
330
5
100
AcDbSymbolTableRecord
100
AcDbLinetypeTableRecord
  2
ACAD_ISO07W100
 70
     0
  3
ISO dot . . . . . . . . . . . . . . . . . . . .
 72
    65
 73
     2
 40
3.5
 49
0.5
 74
     0
 49
-3.0
 74
     0
  0
LTYPE
  5
C2
330
5
100
AcDbSymbolTableRecord
100
AcDbLinetypeTableRecord
  2
ACAD_ISO08W100
 70
     0
  3
ISO long-dash short-dash ____ __ ____ __ ____ _
 72
    65
 73
     4
 40
36.0
 49
24.0
 74
     0
 49
-3.0
 74
     0
 49
6.0
 74
     0
 49
-3.0
 74
     0
  0
LTYPE
  5
C3
330
5
100
AcDbSymbolTableRecord
100
AcDbLinetypeTableRecord
  2
ACAD_ISO09W100
 70
     0
  3
ISO long-dash double-short-dash ____ __ __ ____
 72
    65
 73
     6
 40
45.0
 49
24.0
 74
     0
 49
-3.0
 74
     0
 49
6.0
 74
     0
 49
-3.0
 74
     0
 49
6.0
 74
     0
 49
-3.0
 74
     0
  0
LTYPE
  5
C4
330
5
100
AcDbSymbolTableRecord
100
AcDbLinetypeTableRecord
  2
ACAD_ISO10W100
 70
     0
  3
ISO dash dot __ . __ . __ . __ . __ . __ . __ .
 72
    65
 73
     4
 40
18.5
 49
12.0
 74
     0
 49
-3.0
 74
     0
 49
0.5
 74
     0
 49
-3.0
 74
     0
  0
LTYPE
  5
C5
330
5
100
AcDbSymbolTableRecord
100
AcDbLinetypeTableRecord
  2
ACAD_ISO11W100
 70
     0
  3
ISO double-dash dot __ __ . __ __ . __ __ . __ 
 72
    65
 73
     6
 40
33.5
 49
12.0
 74
     0
 49
-3.0
 74
     0
 49
12.0
 74
     0
 49
-3.0
 74
     0
 49
0.5
 74
     0
 49
-3.0
 74
     0
  0
LTYPE
  5
C6
330
5
100
AcDbSymbolTableRecord
100
AcDbLinetypeTableRecord
  2
ACAD_ISO12W100
 70
     0
  3
ISO dash double-dot __ . . __ . . __ . . __ . .
 72
    65
 73
     6
 40
22.0
 49
12.0
 74
     0
 49
-3.0
 74
     0
 49
0.5
 74
     0
 49
-3.0
 74
     0
 49
0.5
 74
     0
 49
-3.0
 74
     0
  0
LTYPE
  5
C7
330
5
100
AcDbSymbolTableRecord
100
AcDbLinetypeTableRecord
  2
ACAD_ISO13W100
 70
     0
  3
ISO double-dash double-dot __ __ . . __ __ . . 
 72
    65
 73
     8
 40
37.0
 49
12.0
 74
     0
 49
-3.0
 74
     0
 49
12.0
 74
     0
 49
-3.0
 74
     0
 49
0.5
 74
     0
 49
-3.0
 74
     0
 49
0.5
 74
     0
 49
-3.0
 74
     0
  0
LTYPE
  5
C8
330
5
100
AcDbSymbolTableRecord
100
AcDbLinetypeTableRecord
  2
ACAD_ISO14W100
 70
     0
  3
ISO dash triple-dot __ . . . __ . . . __ . . . 
 72
    65
 73
     8
 40
25.5
 49
12.0
 74
     0
 49
-3.0
 74
     0
 49
0.5
 74
     0
 49
-3.0
 74
     0
 49
0.5
 74
     0
 49
-3.0
 74
     0
 49
0.5
 74
     0
 49
-3.0
 74
     0
  0
LTYPE
  5
C9
330
5
100
AcDbSymbolTableRecord
100
AcDbLinetypeTableRecord
  2
ACAD_ISO15W100
 70
     0
  3
ISO double-dash triple-dot __ __ . . . __ __ . 
 72
    65
 73
    10
 40
40.49999999999999
 49
12.0
 74
     0
 49
-3.0
 74
     0
 49
12.0
 74
     0
 49
-3.0
 74
     0
 49
0.5
 74
     0
 49
-3.0
 74
     0
 49
0.5
 74
     0
 49
-3.0
 74
     0
 49
0.5
 74
     0
 49
-3.0
 74
     0
  0
LTYPE
  5
CA
330
5
100
AcDbSymbolTableRecord
100
AcDbLinetypeTableRecord
  2
BATTING
 70
     0
  3
Batting SSSSSSSSSSSSSSSSSSSSSSSSSSSSSSSSSSSSSSS
 72
    65
 73
     4
 40
10.16253999999999
 49
0.00254
 74
     0
 49
-2.54
 74
     4
 75
   134
340
BB
 46
2.54
 50
0.0
 44
-2.54
 45
0.0
 49
-5.08
 74
     4
 75
   134
340
BB
 46
2.54
 50
180.0
 44
2.54
 45
0.0
 49
-2.54
 74
     0
  0
LTYPE
  5
CB
330
5
100
AcDbSymbolTableRecord
100
AcDbLinetypeTableRecord
  2
BORDER
 70
     0
  3
Border __ __ . __ __ . __ __ . __ __ . __ __ .
 72
    65
 73
     6
 40
44.45
 49
12.7
 74
     0
 49
-6.349999999999999
 74
     0
 49
12.7
 74
     0
 49
-6.349999999999999
 74
     0
 49
0.0
 74
     0
 49
-6.349999999999999
 74
     0
  0
LTYPE
  5
CC
330
5
100
AcDbSymbolTableRecord
100
AcDbLinetypeTableRecord
  2
BORDER2
 70
     0
  3
Border (.5x) __.__.__.__.__.__.__.__.__.__.__.
 72
    65
 73
     6
 40
22.225
 49
6.349999999999999
 74
     0
 49
-3.174999999999999
 74
     0
 49
6.349999999999999
 74
     0
 49
-3.174999999999999
 74
     0
 49
0.0
 74
     0
 49
-3.174999999999999
 74
     0
  0
LTYPE
  5
CD
330
5
100
AcDbSymbolTableRecord
100
AcDbLinetypeTableRecord
  2
BORDERX2
 70
     0
  3
Border (2x) ____  ____  .  ____  ____  .  ___
 72
    65
 73
     6
 40
88.9
 49
25.4
 74
     0
 49
-12.7
 74
     0
 49
25.4
 74
     0
 49
-12.7
 74
     0
 49
0.0
 74
     0
 49
-12.7
 74
     0
  0
LTYPE
  5
CE
330
5
100
AcDbSymbolTableRecord
100
AcDbLinetypeTableRecord
  2
CENTER
 70
     0
  3
Center ____ _ ____ _ ____ _ ____ _ ____ _ ____
 72
    65
 73
     4
 40
50.8
 49
31.75
 74
     0
 49
-6.349999999999999
 74
     0
 49
6.349999999999999
 74
     0
 49
-6.349999999999999
 74
     0
  0
LTYPE
  5
CF
330
5
100
AcDbSymbolTableRecord
100
AcDbLinetypeTableRecord
  2
CENTER2
 70
     0
  3
Center (.5x) ___ _ ___ _ ___ _ ___ _ ___ _ ___
 72
    65
 73
     4
 40
28.57499999999999
 49
19.05
 74
     0
 49
-3.174999999999999
 74
     0
 49
3.174999999999999
 74
     0
 49
-3.174999999999999
 74
     0
  0
LTYPE
  5
D0
330
5
100
AcDbSymbolTableRecord
100
AcDbLinetypeTableRecord
  2
CENTERX2
 70
     0
  3
Center (2x) ________  __  ________  __  _____
 72
    65
 73
     4
 40
101.6
 49
63.5
 74
     0
 49
-12.7
 74
     0
 49
12.7
 74
     0
 49
-12.7
 74
     0
  0
LTYPE
  5
D1
330
5
100
AcDbSymbolTableRecord
100
AcDbLinetypeTableRecord
  2
DASHDOT
 70
     0
  3
Dash dot __ . __ . __ . __ . __ . __ . __ . __
 72
    65
 73
     4
 40
25.4
 49
12.7
 74
     0
 49
-6.349999999999999
 74
     0
 49
0.0
 74
     0
 49
-6.349999999999999
 74
     0
  0
LTYPE
  5
D2
330
5
100
AcDbSymbolTableRecord
100
AcDbLinetypeTableRecord
  2
DASHDOT2
 70
     0
  3
Dash dot (.5x) _._._._._._._._._._._._._._._.
 72
    65
 73
     4
 40
12.7
 49
6.349999999999999
 74
     0
 49
-3.174999999999999
 74
     0
 49
0.0
 74
     0
 49
-3.174999999999999
 74
     0
  0
LTYPE
  5
D3
330
5
100
AcDbSymbolTableRecord
100
AcDbLinetypeTableRecord
  2
DASHDOTX2
 70
     0
  3
Dash dot (2x) ____  .  ____  .  ____  .  ___
 72
    65
 73
     4
 40
50.8
 49
25.4
 74
     0
 49
-12.7
 74
     0
 49
0.0
 74
     0
 49
-12.7
 74
     0
  0
LTYPE
  5
D4
330
5
100
AcDbSymbolTableRecord
100
AcDbLinetypeTableRecord
  2
DASHED
 70
     0
  3
Dashed __ __ __ __ __ __ __ __ __ __ __ __ __ _
 72
    65
 73
     2
 40
19.04999999999999
 49
12.7
 74
     0
 49
-6.349999999999999
 74
     0
  0
LTYPE
  5
D5
330
5
100
AcDbSymbolTableRecord
100
AcDbLinetypeTableRecord
  2
DASHED2
 70
     0
  3
Dashed (.5x) _ _ _ _ _ _ _ _ _ _ _ _ _ _ _ _ _
 72
    65
 73
     2
 40
9.524999999999998
 49
6.349999999999999
 74
     0
 49
-3.174999999999999
 74
     0
  0
LTYPE
  5
D6
330
5
100
AcDbSymbolTableRecord
100
AcDbLinetypeTableRecord
  2
DASHEDX2
 70
     0
  3
Dashed (2x) ____  ____  ____  ____  ____  ___
 72
    65
 73
     2
 40
38.09999999999999
 49
25.4
 74
     0
 49
-12.7
 74
     0
  0
LTYPE
  5
D7
330
5
100
AcDbSymbolTableRecord
100
AcDbLinetypeTableRecord
  2
DIVIDE
 70
     0
  3
Divide ____ . . ____ . . ____ . . ____ . . ____
 72
    65
 73
     6
 40
31.74999999999999
 49
12.7
 74
     0
 49
-6.349999999999999
 74
     0
 49
0.0
 74
     0
 49
-6.349999999999999
 74
     0
 49
0.0
 74
     0
 49
-6.349999999999999
 74
     0
  0
LTYPE
  5
D8
330
5
100
AcDbSymbolTableRecord
100
AcDbLinetypeTableRecord
  2
DIVIDE2
 70
     0
  3
Divide (.5x) __..__..__..__..__..__..__..__.._
 72
    65
 73
     6
 40
15.87499999999999
 49
6.349999999999999
 74
     0
 49
-3.174999999999999
 74
     0
 49
0.0
 74
     0
 49
-3.174999999999999
 74
     0
 49
0.0
 74
     0
 49
-3.174999999999999
 74
     0
  0
LTYPE
  5
D9
330
5
100
AcDbSymbolTableRecord
100
AcDbLinetypeTableRecord
  2
DIVIDEX2
 70
     0
  3
Divide (2x) ________  .  .  ________  .  .  _
 72
    65
 73
     6
 40
63.49999999999999
 49
25.4
 74
     0
 49
-12.7
 74
     0
 49
0.0
 74
     0
 49
-12.7
 74
     0
 49
0.0
 74
     0
 49
-12.7
 74
     0
  0
LTYPE
  5
DA
330
5
100
AcDbSymbolTableRecord
100
AcDbLinetypeTableRecord
  2
DOT
 70
     0
  3
Dot . . . . . . . . . . . . . . . . . . . . . .
 72
    65
 73
     2
 40
6.349999999999999
 49
0.0
 74
     0
 49
-6.349999999999999
 74
     0
  0
LTYPE
  5
DB
330
5
100
AcDbSymbolTableRecord
100
AcDbLinetypeTableRecord
  2
DOT2
 70
     0
  3
Dot (.5x) .....................................
 72
    65
 73
     2
 40
3.174999999999999
 49
0.0
 74
     0
 49
-3.174999999999999
 74
     0
  0
LTYPE
  5
DC
330
5
100
AcDbSymbolTableRecord
100
AcDbLinetypeTableRecord
  2
DOTX2
 70
     0
  3
Dot (2x) .  .  .  .  .  .  .  .  .  .  .  .  . 
 72
    65
 73
     2
 40
12.7
 49
0.0
 74
     0
 49
-12.7
 74
     0
  0
LTYPE
  5
DD
330
5
100
AcDbSymbolTableRecord
100
AcDbLinetypeTableRecord
  2
FENCELINE1
 70
     0
  3
Fenceline circle ----0-----0----0-----0----0---
 72
    65
 73
     4
 40
36.82999999999999
 49
6.349999999999999
 74
     0
 49
-2.54
 74
     4
 75
   133
340
BB
 46
2.54
 50
0.0
 44
-2.54
 45
0.0
 49
-2.54
 74
     0
 49
25.4
 74
     0
  0
LTYPE
  5
DE
330
5
100
AcDbSymbolTableRecord
100
AcDbLinetypeTableRecord
  2
FENCELINE2
 70
     0
  3
Fenceline square ----[]-----[]----[]-----[]----
 72
    65
 73
     4
 40
36.82999999999999
 49
6.349999999999999
 74
     0
 49
-2.54
 74
     4
 75
   132
340
BB
 46
2.54
 50
0.0
 44
-2.54
 45
0.0
 49
-2.54
 74
     0
 49
25.4
 74
     0
  0
LTYPE
  5
DF
330
5
100
AcDbSymbolTableRecord
100
AcDbLinetypeTableRecord
  2
GAS_LINE
 70
     0
  3
Gas line ----GAS----GAS----GAS----GAS----GAS---
 72
    65
 73
     3
 40
24.13
 49
12.7
 74
     0
 49
-5.08
 74
     2
 75
     0
340
F
 46
2.54
 50
0.0
 44
-2.54
 45
-1.27
  9
GAS
 49
-6.349999999999999
 74
     0
  0
LTYPE
  5
E0
330
5
100
AcDbSymbolTableRecord
100
AcDbLinetypeTableRecord
  2
HIDDEN
 70
     0
  3
Hidden __ __ __ __ __ __ __ __ __ __ __ __ __ _
 72
    65
 73
     2
 40
9.524999999999998
 49
6.349999999999999
 74
     0
 49
-3.174999999999999
 74
     0
  0
LTYPE
  5
E1
330
5
100
AcDbSymbolTableRecord
100
AcDbLinetypeTableRecord
  2
HIDDEN2
 70
     0
  3
Hidden (.5x) _ _ _ _ _ _ _ _ _ _ _ _ _ _ _ _ _
 72
    65
 73
     2
 40
4.762499999999999
 49
3.174999999999999
 74
     0
 49
-1.587499999999999
 74
     0
  0
LTYPE
  5
E2
330
5
100
AcDbSymbolTableRecord
100
AcDbLinetypeTableRecord
  2
HIDDENX2
 70
     0
  3
Hidden (2x) ____ ____ ____ ____ ____ ____ ____
 72
    65
 73
     2
 40
19.04999999999999
 49
12.7
 74
     0
 49
-6.349999999999999
 74
     0
  0
LTYPE
  5
E3
330
5
100
AcDbSymbolTableRecord
100
AcDbLinetypeTableRecord
  2
HOT_WATER_SUPPLY
 70
     0
  3
Hot water supply ---- HW ---- HW ---- HW ----
 72
    65
 73
     3
 40
22.86
 49
12.7
 74
     0
 49
-5.08
 74
     2
 75
     0
340
F
 46
2.54
 50
0.0
 44
-2.54
 45
-1.27
  9
HW
 49
-5.08
 74
     0
  0
LTYPE
  5
E4
330
5
100
AcDbSymbolTableRecord
100
AcDbLinetypeTableRecord
  2
PHANTOM
 70
     0
  3
Phantom ______  __  __  ______  __  __  ______
 72
    65
 73
     6
 40
63.5
 49
31.75
 74
     0
 49
-6.349999999999999
 74
     0
 49
6.349999999999999
 74
     0
 49
-6.349999999999999
 74
     0
 49
6.349999999999999
 74
     0
 49
-6.349999999999999
 74
     0
  0
LTYPE
  5
E5
330
5
100
AcDbSymbolTableRecord
100
AcDbLinetypeTableRecord
  2
PHANTOM2
 70
     0
  3
Phantom (.5x) ___ _ _ ___ _ _ ___ _ _ ___ _ _
 72
    65
 73
     6
 40
31.75
 49
15.875
 74
     0
 49
-3.174999999999999
 74
     0
 49
3.174999999999999
 74
     0
 49
-3.174999999999999
 74
     0
 49
3.174999999999999
 74
     0
 49
-3.174999999999999
 74
     0
  0
LTYPE
  5
E6
330
5
100
AcDbSymbolTableRecord
100
AcDbLinetypeTableRecord
  2
PHANTOMX2
 70
     0
  3
Phantom (2x) ____________    ____    ____   _
 72
    65
 73
     6
 40
127.0
 49
63.5
 74
     0
 49
-12.7
 74
     0
 49
12.7
 74
     0
 49
-12.7
 74
     0
 49
12.7
 74
     0
 49
-12.7
 74
     0
  0
LTYPE
  5
E7
330
5
100
AcDbSymbolTableRecord
100
AcDbLinetypeTableRecord
  2
TRACKS
 70
     0
  3
Tracks -|-|-|-|-|-|-|-|-|-|-|-|-|-|-|-|-|-|-|-|
 72
    65
 73
     2
 40
7.62
 49
3.81
 74
     4
 75
   130
340
BB
 46
6.349999999999999
 50
0.0
 44
0.0
 45
0.0
 49
3.81
 74
     0
  0
LTYPE
  5
E8
330
5
100
AcDbSymbolTableRecord
100
AcDbLinetypeTableRecord
  2
ZIGZAG
 70
     0
  3
Zig zag /\/\/\/\/\/\/\/\/\/\/\/\/\/\/\/\/\/\/\/
 72
    65
 73
     4
 40
20.32254
 49
0.00254
 74
     0
 49
-5.08
 74
     4
 75
   131
340
BB
 46
5.08
 50
0.0
 44
-5.08
 45
0.0
 49
-10.16
 74
     4
 75
   131
340
BB
 46
5.08
 50
180.0
 44
5.08
 45
0.0
 49
-5.08
 74
     0
  0
ENDTAB
  0
TABLE
  2
LAYER
  5
2
330
0
100
AcDbSymbolTable
 70
     9
  0
LAYER
  5
E
330
2
100
AcDbSymbolTableRecord
100
AcDbLayerTableRecord
  2
0
 70
     0
 62
     7
  6
CONTINUOUS
370
    -3
390
15BA
  0
LAYER
  5
20
330
2
100
AcDbSymbolTableRecord
100
AcDbLayerTableRecord
  2
DEFPOINTS
 70
     0
 62
     7
  6
CONTINUOUS
290
     0
370
    -3
390
15BA
  0
LAYER
  5
21
330
2
100
AcDbSymbolTableRecord
100
AcDbLayerTableRecord
  2
OBJECT
 70
     0
 62
     7
  6
CONTINUOUS
370
    -3
390
15BA
  0
LAYER
  5
E9
330
2
100
AcDbSymbolTableRecord
100
AcDbLayerTableRecord
  2
基準線
 70
     0
 62
     1
  6
CONTINUOUS
370
    -3
390
15BA
  0
LAYER
  5
EA
330
2
100
AcDbSymbolTableRecord
100
AcDbLayerTableRecord
  2
上線
 70
     0
 62
     7
  6
CONTINUOUS
370
    -3
390
15BA
  0
LAYER
  5
EB
330
2
100
AcDbSymbolTableRecord
100
AcDbLayerTableRecord
  2
点線
 70
     0
 62
     5
  6
HIDDEN
370
    -3
390
15BA
  0
LAYER
  5
EC
330
2
100
AcDbSymbolTableRecord
100
AcDbLayerTableRecord
  2
中心線
 70
     0
 62
     6
  6
CENTER
370
    -3
390
15BA
  0
LAYER
  5
15D1
330
2
100
AcDbSymbolTableRecord
100
AcDbLayerTableRecord
  2
上書線
 70
     0
 62
     7
  6
CONTINUOUS
370
    -3
390
15BA
  0
LAYER
  5
15D2
330
2
100
AcDbSymbolTableRecord
100
AcDbLayerTableRecord
  2
WUWAGAKI
 70
     0
 62
     7
  6
CONTINUOUS
370
    -3
390
15BA
  0
ENDTAB
  0
TABLE
  2
STYLE
  5
3
330
0
100
AcDbSymbolTable
 70
     3
  0
STYLE
  5
F
330
3
100
AcDbSymbolTableRecord
100
AcDbTextStyleTableRecord
  2
STANDARD
 70
     0
 40
0.0
 41
1.0
 50
0.0
 71
     0
 42
2.5
  3
MS PMincho.ttf
  4

1001
ACAD
1000
MS PMincho
1071
    32786
  0
STYLE
  5
22
330
3
100
AcDbSymbolTableRecord
100
AcDbTextStyleTableRecord
  2
ADESK1
 70
     0
 40
0.0
 41
1.0
 50
0.0
 71
     0
 42
5.0
  3
romans
  4
bigfont
  0
STYLE
  5
BB
330
3
100
AcDbSymbolTableRecord
100
AcDbTextStyleTableRecord
  2

 70
     1
 40
0.0
 41
1.0
 50
0.0
 71
     0
 42
2.5
  3
ltypeshp.shx
  4

  0
ENDTAB
  0
TABLE
  2
VIEW
  5
6
330
0
100
AcDbSymbolTable
 70
     0
  0
ENDTAB
  0
TABLE
  2
UCS
  5
7
330
0
100
AcDbSymbolTable
 70
     0
  0
ENDTAB
  0
TABLE
  2
APPID
  5
9
330
0
100
AcDbSymbolTable
 70
     1
  0
APPID
  5
10
330
9
100
AcDbSymbolTableRecord
100
AcDbRegAppTableRecord
  2
ACAD
 70
     0
  0
ENDTAB
  0
TABLE
  2
DIMSTYLE
  5
A
330
0
100
AcDbSymbolTable
 70
     2
100
AcDbDimStyleTable
 71
     0
  0
DIMSTYLE
105
1D
330
A
100
AcDbSymbolTableRecord
100
AcDbDimStyleTableRecord
  2
STANDARD
 70
     0
340
F
  0
DIMSTYLE
105
23
330
A
100
AcDbSymbolTableRecord
100
AcDbDimStyleTableRecord
  2
JIS
 70
     0
 41
2.5
 42
1.0
 43
7.0
 44
1.0
 73
     0
 74
     0
 77
     1
 78
     8
140
2.5
141
0.0
143
0.0394
147
0.0
172
     1
174
     1
175
     1
340
F
  0
ENDTAB
  0
TABLE
  2
BLOCK_RECORD
  5
1
330
0
100
AcDbSymbolTable
 70
     2
  0
BLOCK_RECORD
  5
18
330
1
100
AcDbSymbolTableRecord
100
AcDbBlockTableRecord
  2
*MODEL_SPACE
340
15BD
  0
BLOCK_RECORD
  5
15
330
1
100
AcDbSymbolTableRecord
100
AcDbBlockTableRecord
  2
*PAPER_SPACE
340
15BE
  0
BLOCK_RECORD
  5
24
330
1
100
AcDbSymbolTableRecord
100
AcDbBlockTableRecord
  2
JIS_A3
340
0
  0
BLOCK_RECORD
  5
1577
330
1
100
AcDbSymbolTableRecord
100
AcDbBlockTableRecord
  2
A$C5F2E20B8
340
0
  0
ENDTAB
  0
ENDSEC
  0
SECTION
  2
BLOCKS
  0
BLOCK
  5
19
330
18
100
AcDbEntity
  8
0
100
AcDbBlockBegin
  2
*MODEL_SPACE
 70
     0
 10
0.0
 20
0.0
 30
0.0
  3
*MODEL_SPACE
  1

  0
ENDBLK
  5
1A
330
18
100
AcDbEntity
  8
0
100
AcDbBlockEnd
  0
BLOCK
  5
16
330
15
100
AcDbEntity
 67
     1
  8
0
100
AcDbBlockBegin
  2
*PAPER_SPACE
 70
     0
 10
0.0
 20
0.0
 30
0.0
  3
*PAPER_SPACE
  1

  0
ENDBLK
  5
17
330
15
100
AcDbEntity
 67
     1
  8
0
100
AcDbBlockEnd
  0
BLOCK
  5
B1
330
24
100
AcDbEntity
  8
0
100
AcDbBlockBegin
  2
JIS_A3
 70
     2
 10
0.0
 20
0.0
 30
0.0
  3
JIS_A3
  1

  0
LINE
  5
25
330
24
100
AcDbEntity
  8
0
100
AcDbLine
 10
0.0
 20
0.0
 30
0.0
 11
0.0
 21
10.0
 31
0.0
  0
LINE
  5
26
330
24
100
AcDbEntity
  8
0
100
AcDbLine
 10
0.0
 20
297.0
 30
0.0
 11
25.0
 21
297.0
 31
0.0
  0
LINE
  5
27
330
24
100
AcDbEntity
  8
0
100
AcDbLine
 10
420.0
 20
297.0
 30
0.0
 11
420.0
 21
287.0
 31
0.0
  0
LINE
  5
28
330
24
100
AcDbEntity
  8
0
100
AcDbLine
 10
420.0
 20
0.0
 30
0.0
 11
410.0
 21
0.0
 31
0.0
  0
LINE
  5
29
330
24
100
AcDbEntity
  8
0
100
AcDbLine
 10
25.0
 20
10.0
 30
0.0
 11
25.0
 21
287.0
 31
0.0
  0
LINE
  5
2A
330
24
100
AcDbEntity
  8
0
100
AcDbLine
 10
410.0
 20
10.0
 30
0.0
 11
25.0
 21
10.0
 31
0.0
  0
LINE
  5
2B
330
24
100
AcDbEntity
  8
0
100
AcDbLine
 10
410.0
 20
287.0
 30
0.0
 11
410.0
 21
10.0
 31
0.0
  0
LINE
  5
2C
330
24
100
AcDbEntity
  8
0
100
AcDbLine
 10
25.0
 20
287.0
 30
0.0
 11
410.0
 21
287.0
 31
0.0
  0
LINE
  5
2D
330
24
100
AcDbEntity
  8
0
100
AcDbLine
 10
0.0
 20
287.0
 30
0.0
 11
0.0
 21
297.0
 31
0.0
  0
LINE
  5
2E
330
24
100
AcDbEntity
  8
0
100
AcDbLine
 10
25.0
 20
0.0
 30
0.0
 11
0.0
 21
0.0
 31
0.0
  0
LINE
  5
2F
330
24
100
AcDbEntity
  8
0
100
AcDbLine
 10
420.0
 20
10.0
 30
0.0
 11
420.0
 21
0.0
 31
0.0
  0
LINE
  5
30
330
24
100
AcDbEntity
  8
0
100
AcDbLine
 10
410.0
 20
297.0
 30
0.0
 11
420.0
 21
297.0
 31
0.0
  0
ATTDEF
  5
31
330
24
100
AcDbEntity
  8
0
 62
     0
100
AcDbText
 10
19.0
 20
10.0
 30
0.0
 40
3.0
  1

 50
90.0
  7
ADESK1
100
AcDbAttributeDefinition
  3

  2
USER
 70
     8
  0
ATTDEF
  5
32
330
24
100
AcDbEntity
  8
0
 62
     0
100
AcDbText
 10
19.0
 20
70.0
 30
0.0
 40
3.0
  1

 50
90.0
  7
ADESK1
100
AcDbAttributeDefinition
  3

  2
REVDATE
 70
     8
  0
ATTDEF
  5
33
330
24
100
AcDbEntity
  8
0
 62
     0
100
AcDbText
 10
19.0
 20
118.0
 30
0.0
 40
3.0
  1

 50
90.0
  7
ADESK1
100
AcDbAttributeDefinition
  3

  2
FNAME
 70
     8
  0
LINE
  5
34
330
24
100
AcDbEntity
  8
OBJECT
100
AcDbLine
 10
130.0
 20
16.0
 30
0.0
 11
25.0
 21
16.0
 31
0.0
  0
LINE
  5
35
330
24
100
AcDbEntity
  8
OBJECT
100
AcDbLine
 10
130.0
 20
22.0
 30
0.0
 11
25.0
 21
22.0
 31
0.0
  0
LINE
  5
36
330
24
100
AcDbEntity
  8
OBJECT
100
AcDbLine
 10
130.0
 20
28.0
 30
0.0
 11
25.0
 21
28.0
 31
0.0
  0
LINE
  5
37
330
24
100
AcDbEntity
  8
OBJECT
100
AcDbLine
 10
130.0
 20
34.0
 30
0.0
 11
25.0
 21
34.0
 31
0.0
  0
LINE
  5
38
330
24
100
AcDbEntity
  8
OBJECT
100
AcDbLine
 10
130.0
 20
40.0
 30
0.0
 11
25.0
 21
40.0
 31
0.0
  0
LINE
  5
39
330
24
100
AcDbEntity
  8
OBJECT
100
AcDbLine
 10
28.0
 20
11.53589799999999
 30
0.0
 11
30.0
 21
15.0
 31
0.0
  0
LINE
  5
3A
330
24
100
AcDbEntity
  8
OBJECT
100
AcDbLine
 10
32.0
 20
11.53589799999999
 30
0.0
 11
30.0
 21
15.0
 31
0.0
  0
LINE
  5
3B
330
24
100
AcDbEntity
  8
OBJECT
100
AcDbLine
 10
35.0
 20
10.0
 30
0.0
 11
35.0
 21
40.0
 31
0.0
  0
LINE
  5
3C
330
24
100
AcDbEntity
  8
OBJECT
100
AcDbLine
 10
50.0
 20
10.0
 30
0.0
 11
50.0
 21
40.0
 31
0.0
  0
LINE
  5
3D
330
24
100
AcDbEntity
  8
OBJECT
100
AcDbLine
 10
80.0
 20
10.0
 30
0.0
 11
80.0
 21
40.0
 31
0.0
  0
LINE
  5
3E
330
24
100
AcDbEntity
  8
OBJECT
100
AcDbLine
 10
28.0
 20
11.53589799999999
 30
0.0
 11
32.0
 21
11.53589799999999
 31
0.0
  0
LINE
  5
3F
330
24
100
AcDbEntity
  8
OBJECT
100
AcDbLine
 10
39.5
 20
13.0
 30
0.0
 11
40.49999999999999
 21
13.0
 31
0.0
  0
LINE
  5
40
330
24
100
AcDbEntity
  8
OBJECT
100
AcDbLine
 10
44.5
 20
13.0
 30
0.0
 11
45.49999999999999
 21
13.0
 31
0.0
  0
LINE
  5
41
330
24
100
AcDbEntity
  8
OBJECT
100
AcDbLine
 10
32.0
 20
17.535898
 30
0.0
 11
30.0
 21
20.99999999999999
 31
0.0
  0
LINE
  5
42
330
24
100
AcDbEntity
  8
OBJECT
100
AcDbLine
 10
28.0
 20
17.535898
 30
0.0
 11
32.0
 21
17.535898
 31
0.0
  0
LINE
  5
43
330
24
100
AcDbEntity
  8
OBJECT
100
AcDbLine
 10
28.0
 20
17.535898
 30
0.0
 11
30.0
 21
20.99999999999999
 31
0.0
  0
LINE
  5
44
330
24
100
AcDbEntity
  8
OBJECT
100
AcDbLine
 10
32.0
 20
23.53589799999999
 30
0.0
 11
30.0
 21
26.99999999999999
 31
0.0
  0
LINE
  5
45
330
24
100
AcDbEntity
  8
OBJECT
100
AcDbLine
 10
28.0
 20
23.53589799999999
 30
0.0
 11
32.0
 21
23.53589799999999
 31
0.0
  0
LINE
  5
46
330
24
100
AcDbEntity
  8
OBJECT
100
AcDbLine
 10
28.0
 20
23.53589799999999
 30
0.0
 11
30.0
 21
26.99999999999999
 31
0.0
  0
LINE
  5
47
330
24
100
AcDbEntity
  8
OBJECT
100
AcDbLine
 10
28.0
 20
35.53589799999999
 30
0.0
 11
30.0
 21
39.0
 31
0.0
  0
LINE
  5
48
330
24
100
AcDbEntity
  8
OBJECT
100
AcDbLine
 10
32.0
 20
35.53589799999999
 30
0.0
 11
30.0
 21
39.0
 31
0.0
  0
LINE
  5
49
330
24
100
AcDbEntity
  8
OBJECT
100
AcDbLine
 10
28.0
 20
35.53589799999999
 30
0.0
 11
32.0
 21
35.53589799999999
 31
0.0
  0
LINE
  5
4A
330
24
100
AcDbEntity
  8
OBJECT
100
AcDbLine
 10
32.0
 20
29.535898
 30
0.0
 11
30.0
 21
33.0
 31
0.0
  0
LINE
  5
4B
330
24
100
AcDbEntity
  8
OBJECT
100
AcDbLine
 10
28.0
 20
29.535898
 30
0.0
 11
32.0
 21
29.535898
 31
0.0
  0
LINE
  5
4C
330
24
100
AcDbEntity
  8
OBJECT
100
AcDbLine
 10
28.0
 20
29.535898
 30
0.0
 11
30.0
 21
33.0
 31
0.0
  0
LINE
  5
4D
330
24
100
AcDbEntity
  8
OBJECT
100
AcDbLine
 10
39.5
 20
19.0
 30
0.0
 11
40.49999999999999
 21
19.0
 31
0.0
  0
LINE
  5
4E
330
24
100
AcDbEntity
  8
OBJECT
100
AcDbLine
 10
44.5
 20
19.0
 30
0.0
 11
45.49999999999999
 21
19.0
 31
0.0
  0
LINE
  5
4F
330
24
100
AcDbEntity
  8
OBJECT
100
AcDbLine
 10
39.5
 20
25.0
 30
0.0
 11
40.49999999999999
 21
25.0
 31
0.0
  0
LINE
  5
50
330
24
100
AcDbEntity
  8
OBJECT
100
AcDbLine
 10
44.5
 20
25.0
 30
0.0
 11
45.49999999999999
 21
25.0
 31
0.0
  0
LINE
  5
51
330
24
100
AcDbEntity
  8
OBJECT
100
AcDbLine
 10
39.5
 20
31.0
 30
0.0
 11
40.49999999999999
 21
31.0
 31
0.0
  0
LINE
  5
52
330
24
100
AcDbEntity
  8
OBJECT
100
AcDbLine
 10
39.5
 20
37.0
 30
0.0
 11
40.49999999999999
 21
37.0
 31
0.0
  0
LINE
  5
53
330
24
100
AcDbEntity
  8
OBJECT
100
AcDbLine
 10
44.5
 20
31.0
 30
0.0
 11
45.49999999999999
 21
31.0
 31
0.0
  0
LINE
  5
54
330
24
100
AcDbEntity
  8
OBJECT
100
AcDbLine
 10
44.5
 20
37.0
 30
0.0
 11
45.49999999999999
 21
37.0
 31
0.0
  0
LINE
  5
55
330
24
100
AcDbEntity
  8
OBJECT
100
AcDbLine
 10
120.0
 20
10.0
 30
0.0
 11
120.0
 21
40.0
 31
0.0
  0
LINE
  5
56
330
24
100
AcDbEntity
  8
OBJECT
100
AcDbLine
 10
130.0
 20
40.0
 30
0.0
 11
130.0
 21
10.0
 31
0.0
  0
LINE
  5
57
330
24
100
AcDbEntity
  8
0
100
AcDbLine
 10
217.5
 20
10.0
 30
0.0
 11
217.5
 21
0.0
 31
0.0
  0
LINE
  5
58
330
24
100
AcDbEntity
  8
0
100
AcDbLine
 10
217.5
 20
287.0
 30
0.0
 11
217.5
 21
297.0
 31
0.0
  0
LINE
  5
59
330
24
100
AcDbEntity
  8
0
100
AcDbLine
 10
410.0
 20
148.5
 30
0.0
 11
420.0
 21
148.5
 31
0.0
  0
LINE
  5
5A
330
24
100
AcDbEntity
  8
0
100
AcDbLine
 10
25.0
 20
148.5
 30
0.0
 11
0.0
 21
148.5
 31
0.0
  0
TEXT
  5
5B
330
24
100
AcDbEntity
  8
0
100
AcDbText
 10
1.0
 20
1.0
 30
0.0
 40
3.0
  1
この図枠はサンプルです。社内の規格やプロッタの出力範囲に合わせて適当に変更してご利用ください。
  7
ADESK1
100
AcDbText
  0
LINE
  5
5C
330
24
100
AcDbEntity
  8
0
100
AcDbLine
 10
25.0
 20
240.8333333333333
 30
0.0
 11
20.0
 21
240.8333333333333
 31
0.0
  0
LINE
  5
5D
330
24
100
AcDbEntity
  8
0
100
AcDbLine
 10
25.0
 20
194.6666666666666
 30
0.0
 11
20.0
 21
194.6666666666666
 31
0.0
  0
LINE
  5
5E
330
24
100
AcDbEntity
  8
0
100
AcDbLine
 10
25.0
 20
148.5
 30
0.0
 11
20.0
 21
148.5
 31
0.0
  0
LINE
  5
5F
330
24
100
AcDbEntity
  8
0
100
AcDbLine
 10
25.0
 20
102.3333333333333
 30
0.0
 11
20.0
 21
102.3333333333333
 31
0.0
  0
LINE
  5
60
330
24
100
AcDbEntity
  8
0
100
AcDbLine
 10
25.0
 20
56.16666666666667
 30
0.0
 11
20.0
 21
56.16666666666667
 31
0.0
  0
LINE
  5
61
330
24
100
AcDbEntity
  8
0
100
AcDbLine
 10
410.0
 20
56.16666666666668
 30
0.0
 11
415.0
 21
56.16666666666668
 31
0.0
  0
LINE
  5
62
330
24
100
AcDbEntity
  8
0
100
AcDbLine
 10
410.0
 20
102.3333333333333
 30
0.0
 11
415.0
 21
102.3333333333333
 31
0.0
  0
LINE
  5
63
330
24
100
AcDbEntity
  8
0
100
AcDbLine
 10
410.0
 20
148.5
 30
0.0
 11
415.0
 21
148.5
 31
0.0
  0
LINE
  5
64
330
24
100
AcDbEntity
  8
0
100
AcDbLine
 10
410.0
 20
194.6666666666667
 30
0.0
 11
415.0
 21
194.6666666666667
 31
0.0
  0
LINE
  5
65
330
24
100
AcDbEntity
  8
0
100
AcDbLine
 10
410.0
 20
240.8333333333333
 30
0.0
 11
415.0
 21
240.8333333333333
 31
0.0
  0
LINE
  5
66
330
24
100
AcDbEntity
  8
0
100
AcDbLine
 10
73.125
 20
10.0
 30
0.0
 11
73.125
 21
5.0
 31
0.0
  0
LINE
  5
67
330
24
100
AcDbEntity
  8
0
100
AcDbLine
 10
121.25
 20
10.0
 30
0.0
 11
121.25
 21
5.0
 31
0.0
  0
LINE
  5
68
330
24
100
AcDbEntity
  8
0
100
AcDbLine
 10
169.375
 20
10.0
 30
0.0
 11
169.375
 21
5.0
 31
0.0
  0
LINE
  5
69
330
24
100
AcDbEntity
  8
0
100
AcDbLine
 10
217.5
 20
10.0
 30
0.0
 11
217.5
 21
5.0
 31
0.0
  0
LINE
  5
6A
330
24
100
AcDbEntity
  8
0
100
AcDbLine
 10
265.625
 20
10.0
 30
0.0
 11
265.625
 21
5.0
 31
0.0
  0
LINE
  5
6B
330
24
100
AcDbEntity
  8
0
100
AcDbLine
 10
313.75
 20
10.0
 30
0.0
 11
313.75
 21
5.0
 31
0.0
  0
LINE
  5
6C
330
24
100
AcDbEntity
  8
0
100
AcDbLine
 10
361.8749999999999
 20
10.0
 30
0.0
 11
361.8749999999999
 21
5.0
 31
0.0
  0
LINE
  5
6D
330
24
100
AcDbEntity
  8
0
100
AcDbLine
 10
361.8749999999999
 20
287.0
 30
0.0
 11
361.8749999999999
 21
292.0
 31
0.0
  0
LINE
  5
6E
330
24
100
AcDbEntity
  8
0
100
AcDbLine
 10
313.75
 20
287.0
 30
0.0
 11
313.75
 21
292.0
 31
0.0
  0
LINE
  5
6F
330
24
100
AcDbEntity
  8
0
100
AcDbLine
 10
265.625
 20
287.0
 30
0.0
 11
265.625
 21
292.0
 31
0.0
  0
LINE
  5
70
330
24
100
AcDbEntity
  8
0
100
AcDbLine
 10
217.5
 20
287.0
 30
0.0
 11
217.5
 21
292.0
 31
0.0
  0
LINE
  5
71
330
24
100
AcDbEntity
  8
0
100
AcDbLine
 10
169.375
 20
287.0
 30
0.0
 11
169.375
 21
292.0
 31
0.0
  0
LINE
  5
72
330
24
100
AcDbEntity
  8
0
100
AcDbLine
 10
121.25
 20
287.0
 30
0.0
 11
121.25
 21
292.0
 31
0.0
  0
LINE
  5
73
330
24
100
AcDbEntity
  8
0
100
AcDbLine
 10
73.125
 20
287.0
 30
0.0
 11
73.125
 21
292.0
 31
0.0
  0
TEXT
  5
74
330
24
100
AcDbEntity
  8
0
100
AcDbText
 10
47.84821428571429
 20
288.0
 30
0.0
 40
3.0
  1
1
  7
ADESK1
 72
     1
 11
49.0625
 21
288.0
 31
0.0
100
AcDbText
  0
TEXT
  5
75
330
24
100
AcDbEntity
  8
0
100
AcDbText
 10
21.32144707381961
 20
263.9166666666666
 30
0.0
 40
3.0
  1
A
  7
ADESK1
 72
     1
 11
22.60716135953389
 21
263.9166666666666
 31
0.0
100
AcDbText
  0
TEXT
  5
76
330
24
100
AcDbEntity
  8
0
100
AcDbText
 10
95.75892857142857
 20
288.0
 30
0.0
 40
3.0
  1
2
  7
ADESK1
 72
     1
 11
97.1875
 21
288.0
 31
0.0
100
AcDbText
  0
TEXT
  5
77
330
24
100
AcDbEntity
  8
0
100
AcDbText
 10
143.8839285714285
 20
288.0
 30
0.0
 40
3.0
  1
3
  7
ADESK1
 72
     1
 11
145.3125
 21
288.0
 31
0.0
100
AcDbText
  0
TEXT
  5
78
330
24
100
AcDbEntity
  8
0
100
AcDbText
 10
191.9375
 20
288.0
 30
0.0
 40
3.0
  1
4
  7
ADESK1
 72
     1
 11
193.4375
 21
288.0
 31
0.0
100
AcDbText
  0
TEXT
  5
79
330
24
100
AcDbEntity
  8
0
100
AcDbText
 10
240.1339285714285
 20
288.0
 30
0.0
 40
3.0
  1
5
  7
ADESK1
 72
     1
 11
241.5624999999999
 21
288.0
 31
0.0
100
AcDbText
  0
TEXT
  5
7A
330
24
100
AcDbEntity
  8
0
100
AcDbText
 10
288.1874999999999
 20
288.0
 30
0.0
 40
3.0
  1
6
  7
ADESK1
 72
     1
 11
289.6875
 21
288.0
 31
0.0
100
AcDbText
  0
TEXT
  5
7B
330
24
100
AcDbEntity
  8
0
100
AcDbText
 10
336.3839285714285
 20
288.0
 30
0.0
 40
3.0
  1
7
  7
ADESK1
 72
     1
 11
337.8125
 21
288.0
 31
0.0
100
AcDbText
  0
TEXT
  5
7C
330
24
100
AcDbEntity
  8
0
100
AcDbText
 10
384.5089285714285
 20
288.0
 30
0.0
 40
3.0
  1
8
  7
ADESK1
 72
     1
 11
385.9375
 21
288.0
 31
0.0
100
AcDbText
  0
TEXT
  5
7D
330
24
100
AcDbEntity
  8
0
100
AcDbText
 10
21.03573278810532
 20
217.7499999999999
 30
0.0
 40
3.0
  1
B
  7
ADESK1
 72
     1
 11
22.60716135953389
 21
217.7499999999999
 31
0.0
100
AcDbText
  0
TEXT
  5
7E
330
24
100
AcDbEntity
  8
0
100
AcDbText
 10
21.10716135953389
 20
171.5833333333333
 30
0.0
 40
3.0
  1
C
  7
ADESK1
 72
     1
 11
22.60716135953389
 21
171.5833333333333
 31
0.0
100
AcDbText
  0
TEXT
  5
7F
330
24
100
AcDbEntity
  8
0
100
AcDbText
 10
21.03573278810532
 20
125.4166666666666
 30
0.0
 40
3.0
  1
D
  7
ADESK1
 72
     1
 11
22.60716135953389
 21
125.4166666666666
 31
0.0
100
AcDbText
  0
TEXT
  5
80
330
24
100
AcDbEntity
  8
0
100
AcDbText
 10
21.10716135953389
 20
79.25
 30
0.0
 40
3.0
  1
E
  7
ADESK1
 72
     1
 11
22.60716135953389
 21
79.25
 31
0.0
100
AcDbText
  0
TEXT
  5
81
330
24
100
AcDbEntity
  8
0
100
AcDbText
 10
21.10716135953389
 20
33.08333333333334
 30
0.0
 40
3.0
  1
F
  7
ADESK1
 72
     1
 11
22.60716135953389
 21
33.08333333333334
 31
0.0
100
AcDbText
  0
TEXT
  5
82
330
24
100
AcDbEntity
  8
0
100
AcDbText
 10
47.84821428571429
 20
6.019997240728748
 30
0.0
 40
3.0
  1
1
  7
ADESK1
 72
     1
 11
49.0625
 21
6.019997240728748
 31
0.0
100
AcDbText
  0
TEXT
  5
83
330
24
100
AcDbEntity
  8
0
100
AcDbText
 10
95.75892857142857
 20
6.019997240728748
 30
0.0
 40
3.0
  1
2
  7
ADESK1
 72
     1
 11
97.1875
 21
6.019997240728748
 31
0.0
100
AcDbText
  0
TEXT
  5
84
330
24
100
AcDbEntity
  8
0
100
AcDbText
 10
143.8839285714285
 20
6.019997240728748
 30
0.0
 40
3.0
  1
3
  7
ADESK1
 72
     1
 11
145.3125
 21
6.019997240728748
 31
0.0
100
AcDbText
  0
TEXT
  5
85
330
24
100
AcDbEntity
  8
0
100
AcDbText
 10
191.9375
 20
6.019997240728748
 30
0.0
 40
3.0
  1
4
  7
ADESK1
 72
     1
 11
193.4375
 21
6.019997240728748
 31
0.0
100
AcDbText
  0
TEXT
  5
86
330
24
100
AcDbEntity
  8
0
100
AcDbText
 10
240.1339285714285
 20
6.019997240728748
 30
0.0
 40
3.0
  1
5
  7
ADESK1
 72
     1
 11
241.5624999999999
 21
6.019997240728748
 31
0.0
100
AcDbText
  0
TEXT
  5
87
330
24
100
AcDbEntity
  8
0
100
AcDbText
 10
288.1874999999999
 20
6.019997240728748
 30
0.0
 40
3.0
  1
6
  7
ADESK1
 72
     1
 11
289.6875
 21
6.019997240728748
 31
0.0
100
AcDbText
  0
TEXT
  5
88
330
24
100
AcDbEntity
  8
0
100
AcDbText
 10
336.3839285714285
 20
6.019997240728748
 30
0.0
 40
3.0
  1
7
  7
ADESK1
 72
     1
 11
337.8125
 21
6.019997240728748
 31
0.0
100
AcDbText
  0
TEXT
  5
89
330
24
100
AcDbEntity
  8
0
100
AcDbText
 10
384.5089285714285
 20
6.019997240728748
 30
0.0
 40
3.0
  1
8
  7
ADESK1
 72
     1
 11
385.9375
 21
6.019997240728748
 31
0.0
100
AcDbText
  0
TEXT
  5
8A
330
24
100
AcDbEntity
  8
0
100
AcDbText
 10
411.5851108826324
 20
263.9166666666666
 30
0.0
 40
3.0
  1
A
  7
ADESK1
 72
     1
 11
412.8708251683468
 21
263.9166666666666
 31
0.0
100
AcDbText
  0
TEXT
  5
8B
330
24
100
AcDbEntity
  8
0
100
AcDbText
 10
411.2993965969182
 20
217.7499999999999
 30
0.0
 40
3.0
  1
B
  7
ADESK1
 72
     1
 11
412.8708251683468
 21
217.7499999999999
 31
0.0
100
AcDbText
  0
TEXT
  5
8C
330
24
100
AcDbEntity
  8
0
100
AcDbText
 10
411.3708251683467
 20
171.5833333333333
 30
0.0
 40
3.0
  1
C
  7
ADESK1
 72
     1
 11
412.8708251683468
 21
171.5833333333333
 31
0.0
100
AcDbText
  0
TEXT
  5
8D
330
24
100
AcDbEntity
  8
0
100
AcDbText
 10
411.2993965969182
 20
125.4166666666666
 30
0.0
 40
3.0
  1
D
  7
ADESK1
 72
     1
 11
412.8708251683468
 21
125.4166666666666
 31
0.0
100
AcDbText
  0
TEXT
  5
8E
330
24
100
AcDbEntity
  8
0
100
AcDbText
 10
411.3708251683467
 20
79.25
 30
0.0
 40
3.0
  1
E
  7
ADESK1
 72
     1
 11
412.8708251683468
 21
79.25
 31
0.0
100
AcDbText
  0
TEXT
  5
8F
330
24
100
AcDbEntity
  8
0
100
AcDbText
 10
411.3708251683467
 20
33.08333333333334
 30
0.0
 40
3.0
  1
F
  7
ADESK1
 72
     1
 11
412.8708251683468
 21
33.08333333333334
 31
0.0
100
AcDbText
  0
LINE
  5
90
330
24
100
AcDbEntity
  8
0
 62
     0
100
AcDbLine
 10
280.2978723404241
 20
49.00000000000036
 30
0.0
 11
410.0
 21
49.00000000000036
 31
0.0
  0
LINE
  5
91
330
24
100
AcDbEntity
  8
0
 62
     0
100
AcDbLine
 10
280.2978723404241
 20
13.00000000000004
 30
0.0
 11
410.0
 21
13.00000000000004
 31
0.0
  0
LINE
  5
92
330
24
100
AcDbEntity
  8
0
 62
     0
100
AcDbLine
 10
280.2978723404241
 20
37.00000000000024
 30
0.0
 11
410.0
 21
37.00000000000024
 31
0.0
  0
LINE
  5
93
330
24
100
AcDbEntity
  8
0
 62
     0
100
AcDbLine
 10
318.1276595744673
 20
22.00000000000012
 30
0.0
 11
410.0
 21
22.00000000000012
 31
0.0
  0
LINE
  5
94
330
24
100
AcDbEntity
  8
0
 62
     0
100
AcDbLine
 10
280.2978723404241
 20
10.0
 30
0.0
 11
410.0
 21
10.0
 31
0.0
  0
LINE
  5
95
330
24
100
AcDbEntity
  8
0
 62
     0
100
AcDbLine
 10
410.0
 20
49.00000000000036
 30
0.0
 11
280.2978723404241
 21
49.00000000000036
 31
0.0
  0
LINE
  5
96
330
24
100
AcDbEntity
  8
0
 62
     0
100
AcDbLine
 10
303.7163120567365
 20
37.00000000000024
 30
0.0
 11
303.7163120567365
 21
10.0
 31
0.0
  0
LINE
  5
97
330
24
100
AcDbEntity
  8
0
 62
     0
100
AcDbLine
 10
285.702127659573
 20
37.00000000000024
 30
0.0
 11
285.702127659573
 21
10.0
 31
0.0
  0
LINE
  5
98
330
24
100
AcDbEntity
  8
0
 62
     0
100
AcDbLine
 10
312.7234042553184
 20
37.00000000000024
 30
0.0
 11
312.7234042553184
 21
10.0
 31
0.0
  0
LINE
  5
99
330
24
100
AcDbEntity
  8
0
 62
     0
100
AcDbLine
 10
318.1276595744673
 20
25.00000000000012
 30
0.0
 11
318.1276595744673
 21
10.0
 31
0.0
  0
LINE
  5
9A
330
24
100
AcDbEntity
  8
0
 62
     0
100
AcDbLine
 10
280.2978723404241
 20
49.00000000000036
 30
0.0
 11
280.2978723404241
 21
10.0
 31
0.0
  0
LINE
  5
9B
330
24
100
AcDbEntity
  8
0
 62
     0
100
AcDbLine
 10
348.7517730496447
 20
49.00000000000036
 30
0.0
 11
348.7517730496447
 21
10.0
 31
0.0
  0
LINE
  5
9C
330
24
100
AcDbEntity
  8
0
 62
     0
100
AcDbLine
 10
328.7659574468077
 20
22.00000000000007
 30
0.0
 11
328.7659574468077
 21
10.0
 31
0.0
  0
LINE
  5
9D
330
24
100
AcDbEntity
  8
0
 62
     0
100
AcDbLine
 10
339.4042553191484
 20
22.00000000000007
 30
0.0
 11
339.4042553191484
 21
10.0
 31
0.0
  0
LINE
  5
9E
330
24
100
AcDbEntity
  8
0
 62
     0
100
AcDbLine
 10
280.2978723404241
 20
16.00000000000008
 30
0.0
 11
318.1276595744673
 21
16.00000000000008
 31
0.0
  0
LINE
  5
9F
330
24
100
AcDbEntity
  8
0
 62
     0
100
AcDbLine
 10
280.2978723404241
 20
10.0
 30
0.0
 11
280.2978723404241
 21
13.00000000000004
 31
0.0
  0
TEXT
  5
A0
330
24
100
AcDbEntity
  8
0
 62
     0
100
AcDbText
 10
321.7174935280942
 20
10.48329012996929
 30
0.0
 40
1.791674070777747
  1
製図
  7
ADESK1
 72
     1
 11
323.5688900678979
 21
10.48329012996929
 31
0.0
100
AcDbText
  0
TEXT
  5
A1
330
24
100
AcDbEntity
  8
0
 62
     0
100
AcDbText
 10
332.2960689314087
 20
10.48329012996929
 30
0.0
 40
1.791674070777747
  1
設計
  7
ADESK1
 72
     1
 11
334.2071879402383
 21
10.48329012996929
 31
0.0
100
AcDbText
  0
TEXT
  5
A2
330
24
100
AcDbEntity
  8
0
 62
     0
100
AcDbText
 10
342.2447163844405
 20
10.55220101068186
 30
0.0
 40
1.791674070777747
  1
照査
  7
ADESK1
 72
     1
 11
344.1558353932701
 21
10.55220101068186
 31
0.0
100
AcDbText
  0
LINE
  5
A3
330
24
100
AcDbEntity
  8
0
 62
     0
100
AcDbLine
 10
280.2978723404241
 20
25.00000000000012
 30
0.0
 11
318.1276595744673
 21
25.00000000000012
 31
0.0
  0
LINE
  5
A4
330
24
100
AcDbEntity
  8
0
 62
     0
100
AcDbLine
 10
280.2978723404241
 20
22.00000000000007
 30
0.0
 11
318.1276595744673
 21
22.00000000000012
 31
0.0
  0
LINE
  5
A5
330
24
100
AcDbEntity
  8
0
 62
     0
100
AcDbLine
 10
280.2978723404241
 20
19.00000000000007
 30
0.0
 11
318.1276595744673
 21
19.00000000000012
 31
0.0
  0
LINE
  5
A6
330
24
100
AcDbEntity
  8
0
 62
     0
100
AcDbLine
 10
280.2978723404241
 20
34.00000000000024
 30
0.0
 11
348.7517730496447
 21
34.00000000000024
 31
0.0
  0
LINE
  5
A7
330
24
100
AcDbEntity
  8
0
 62
     0
100
AcDbLine
 10
280.2978723404241
 20
31.0000000000002
 30
0.0
 11
348.7517730496447
 21
31.0000000000002
 31
0.0
  0
LINE
  5
A8
330
24
100
AcDbEntity
  8
0
 62
     0
100
AcDbLine
 10
280.2978723404241
 20
28.00000000000015
 30
0.0
 11
348.7517730496447
 21
28.00000000000015
 31
0.0
  0
LINE
  5
A9
330
24
100
AcDbEntity
  8
0
 62
     0
100
AcDbLine
 10
318.1276595744673
 20
25.00000000000012
 30
0.0
 11
348.7517730496447
 21
25.00000000000012
 31
0.0
  0
LINE
  5
AA
330
24
100
AcDbEntity
  8
0
 62
     0
100
AcDbLine
 10
318.1276595744673
 20
49.00000000000036
 30
0.0
 11
318.1276595744673
 21
25.00000000000012
 31
0.0
  0
LINE
  5
AB
330
24
100
AcDbEntity
  8
0
 62
     0
100
AcDbLine
 10
325.3333333333325
 20
37.00000000000024
 30
0.0
 11
325.3333333333325
 21
25.00000000000012
 31
0.0
  0
LINE
  5
AC
330
24
100
AcDbEntity
  8
0
 62
     0
100
AcDbLine
 10
336.1418439716306
 20
49.00000000000036
 30
0.0
 11
336.1418439716306
 21
22.00000000000012
 31
0.0
  0
LINE
  5
AD
330
24
100
AcDbEntity
  8
0
 62
     0
100
AcDbLine
 10
402.7943262411347
 20
22.00000000000012
 30
0.0
 11
402.7943262411347
 21
10.0
 31
0.0
  0
LINE
  5
AE
330
24
100
AcDbEntity
  8
0
 62
     0
100
AcDbLine
 10
410.0
 20
49.00000000000036
 30
0.0
 11
410.0
 21
10.0
 31
0.0
  0
LINE
  5
AF
330
24
100
AcDbEntity
  8
0
 62
     0
100
AcDbLine
 10
410.0
 20
10.0
 30
0.0
 11
410.0
 21
49.00000000000036
 31
0.0
  0
LINE
  5
B0
330
24
100
AcDbEntity
  8
0
 62
     0
100
AcDbLine
 10
402.7943262411347
 20
16.00000000000008
 30
0.0
 11
410.0
 21
16.00000000000008
 31
0.0
  0
ENDBLK
  5
B2
330
24
100
AcDbEntity
  8
0
100
AcDbBlockEnd
  0
BLOCK
  5
157B
330
1577
100
AcDbEntity
  8
0
100
AcDbBlockBegin
  2
A$C5F2E20B8
 70
     0
 10
0.0
 20
0.0
 30
0.0
  3
A$C5F2E20B8
  1

  0
LINE
  5
1578
330
1577
100
AcDbEntity
  8
0
  6
ByBlock
 62
     0
100
AcDbLine
 10
37.5
 20
-0.0000092580530691
 30
0.0
 11
574.4135293018703
 21
-0.0000092580530691
 31
0.0
  0
MTEXT
  5
1579
330
1577
100
AcDbEntity
  8
上線
100
AcDbMText
 10
38.36317801860968
 20
74.9025792359198
 30
0.0
 40
37.5
 41
0.0
 71
     4
 72
     1
  1
斜　筋\P4-D10
 73
     1
 44
1.0
  0
POINT
  5
157A
330
1577
100
AcDbEntity
  8
DEFPOINTS
  6
ByBlock
 62
     0
100
AcDbPoint
 10
0.0
 20
-0.0000092580530691
 30
0.0
  0
ENDBLK
  5
157C
330
1577
100
AcDbEntity
  8
0
100
AcDbBlockEnd
  0
ENDSEC
  0
SECTION
  2
ENTITIES
  0
MTEXT
  5
479
330
18
100
AcDbEntity
  8
上線
 48
10.0
100
AcDbMText
 10
2253.72144281457
 20
1430.035937614872
 30
0.0
 40
25.0
 41
0.0
 71
     4
 72
     1
  1
\A1;
 73
     1
 44
1.0
  0
MTEXT
  5
482
330
18
100
AcDbEntity
  8
上線
 48
10.0
100
AcDbMText
 10
2528.397580071227
 20
1457.117940756564
 30
0.0
 40
25.0
 41
0.0
 71
     4
 72
     1
  1
\A1;
 73
     1
 44
1.0
  0
LINE
  5
1692
330
18
100
AcDbEntity
  8
上線
100
AcDbLine
 10
5408.114905102725
 20
-644.5104054624444
 30
0.0
 11
5458.114905102725
 21
-644.5104054624444
 31
0.0
  0
LINE
  5
169A
330
18
100
AcDbEntity
  8
上線
100
AcDbLine
 10
5408.114905102725
 20
-544.5104054624444
 30
0.0
 11
5408.114905102725
 21
-644.5104054624444
 31
0.0
  0
TEXT
  5
16C9
330
18
100
AcDbEntity
  8
WUWAGAKI
100
AcDbText
 10
7911.431260347867
 20
-1895.371193183071
 30
0.0
 40
45.0
  1
長尺Ｕ字溝（2-80）
100
AcDbText
  0
MTEXT
  5
175E
330
18
100
AcDbEntity
  8
0
  6
ByBlock
 62
     0
 48
10.0
100
AcDbMText
 10
5129.433274850391
 20
-1044.520667971009
 30
0.0
 40
37.5
 41
0.0
 71
     5
 72
     1
  1
800
 11
0.0000000000000001
 21
1.0
 31
0.0
 73
     1
 44
1.0
  0
MTEXT
  5
175F
330
18
100
AcDbEntity
  8
0
  6
ByBlock
 62
     0
 48
10.0
100
AcDbMText
 10
4979.433274850387
 20
-1069.520667971009
 30
0.0
 40
37.5
 41
0.0
 71
     5
 72
     1
  1
1050
 11
0.0000000000000001
 21
1.0
 31
0.0
 73
     1
 44
1.0
  0
LINE
  5
1760
330
18
100
AcDbEntity
  8
OBJECT
100
AcDbLine
 10
8207.933266047431
 20
-544.5206679710095
 30
0.0
 11
8207.933266047431
 21
-1594.520667971007
 31
0.0
  0
LINE
  5
1761
330
18
100
AcDbEntity
  8
OBJECT
100
AcDbLine
 10
6207.933266047432
 20
-544.520667971009
 30
0.0
 11
6207.933266047432
 21
-1594.52066797101
 31
0.0
  0
LINE
  5
1764
330
18
100
AcDbEntity
  8
上線
 48
10.0
100
AcDbLine
 10
5448.114905102725
 20
-644.5104054624444
 30
0.0
 11
5452.828220065834
 21
-1395.367460869421
 31
0.0
  0
LINE
  5
1765
330
18
100
AcDbEntity
  8
上線
 48
10.0
100
AcDbLine
 10
5458.114905102725
 20
-644.5104054624444
 30
0.0
 11
5462.827199813829
 21
-1395.224618301592
 31
0.0
  0
LINE
  5
1766
330
18
100
AcDbEntity
  8
OBJECT
 48
10.0
100
AcDbLine
 10
5009.433274850387
 20
-1594.520667971053
 30
0.0
 11
5009.433274850387
 21
-544.520667971009
 31
0.0
  0
LINE
  5
1767
330
18
100
AcDbEntity
  8
OBJECT
 48
10.0
100
AcDbLine
 10
5159.43328361381
 20
-1594.520667971053
 30
0.0
 11
5159.433283613808
 21
-544.520667971009
 31
0.0
  0
LINE
  5
1768
330
18
100
AcDbEntity
  8
OBJECT
100
AcDbLine
 10
5337.933266047431
 20
-544.520667971009
 30
0.0
 11
5337.93326604743
 21
-1584.520667971009
 31
0.0
  0
LINE
  5
1769
330
18
100
AcDbEntity
  8
OBJECT
100
AcDbLine
 10
5907.933266047431
 20
-544.520667971009
 30
0.0
 11
5907.933266047431
 21
-1584.520667971009
 31
0.0
  0
LINE
  5
176A
330
18
100
AcDbEntity
  8
WUWAGAKI
100
AcDbLine
 10
4522.895458060821
 20
613.1222524653613
 30
0.0
 11
4522.895458060821
 21
-2313.027599330762
 31
0.0
  0
LINE
  5
176B
330
18
100
AcDbEntity
  8
WUWAGAKI
100
AcDbLine
 10
8793.61437668774
 20
-2313.027599330762
 30
0.0
 11
8793.61437668774
 21
613.1222524653613
 31
0.0
  0
LINE
  5
176C
330
18
100
AcDbEntity
  8
上線
 48
10.0
100
AcDbLine
 10
6207.933266047432
 20
-1584.520667971009
 30
0.0
 11
8207.933266047431
 21
-1584.520667971009
 31
0.0
  0
LINE
  5
176D
330
18
100
AcDbEntity
  8
上線
 48
10.0
100
AcDbLine
 10
6207.933266047432
 20
-1594.52066797101
 30
0.0
 11
8207.933266047431
 21
-1594.520667971007
 31
0.0
  0
LINE
  5
176E
330
18
100
AcDbEntity
  8
点線
100
AcDbLine
 10
8207.933266047431
 20
-1444.520667971008
 30
0.0
 11
6207.933266047432
 21
-1444.520667971008
 31
0.0
  0
LINE
  5
176F
330
18
100
AcDbEntity
  8
WUWAGAKI
100
AcDbLine
 10
4522.895458060821
 20
-2313.027599330762
 30
0.0
 11
8793.61437668774
 21
-2313.027599330762
 31
0.0
  0
ARC
  5
1770
330
18
100
AcDbEntity
  8
上線
100
AcDbCircle
 10
5703.407711651646
 20
-1394.510405462444
 30
0.0
 40
50.0
100
AcDbArc
 50
270.0
 51
359.1815445383053
  0
LINE
  5
1771
330
18
100
AcDbEntity
  8
OBJECT
100
AcDbLine
 10
5347.93326604743
 20
-1594.520667971009
 30
0.0
 11
5897.933266047431
 21
-1594.520667971009
 31
0.0
  0
ARC
  5
1772
330
18
100
AcDbEntity
  8
上線
100
AcDbCircle
 10
5703.407711651646
 20
-1394.510405462444
 30
0.0
 40
60.0
100
AcDbArc
 50
270.0
 51
359.1815445383053
  0
SOLID
  5
1773
330
18
100
AcDbEntity
  8
0
  6
ByBlock
 62
     0
 48
10.0
100
AcDbTrace
 10
5153.18328361381
 20
-1557.020656111899
 30
0.0
 11
5165.683283613811
 21
-1557.020656111899
 31
0.0
 12
5159.433283613811
 22
-1594.520656111899
 32
0.0
 13
5159.433283613811
 23
-1594.520656111899
 33
0.0
  0
SOLID
  5
1774
330
18
100
AcDbEntity
  8
0
  6
ByBlock
 62
     0
 48
10.0
100
AcDbTrace
 10
5015.683274850386
 20
-1557.020667971031
 30
0.0
 11
5003.183274850385
 21
-1557.020667971031
 31
0.0
 12
5009.433274850386
 22
-1594.520667971031
 32
0.0
 13
5009.433274850386
 23
-1594.520667971031
 33
0.0
  0
LINE
  5
1775
330
18
100
AcDbEntity
  8
0
 48
10.0
100
AcDbLine
 10
5309.43327485039
 20
-1594.520667971053
 30
0.0
 11
4979.43327485039
 21
-1594.520667971053
 31
0.0
  0
LINE
  5
1776
330
18
100
AcDbEntity
  8
上線
100
AcDbLine
 10
5337.93326604743
 20
-1584.520667971009
 30
0.0
 11
5347.93326604743
 21
-1594.520667971009
 31
0.0
  0
SOLID
  5
1777
330
18
100
AcDbEntity
  8
0
  6
ByBlock
 62
     0
 48
10.0
100
AcDbTrace
 10
5165.683266086967
 20
-1482.020667971058
 30
0.0
 11
5153.183266086969
 21
-1482.020667971058
 31
0.0
 12
5159.433266086965
 22
-1444.520667971058
 32
0.0
 13
5159.433266086965
 23
-1444.520667971058
 33
0.0
  0
MTEXT
  5
1778
330
18
100
AcDbEntity
  8
0
  6
ByBlock
 62
     0
 48
10.0
100
AcDbMText
 10
5129.433281637276
 20
-1519.520667971053
 30
0.0
 40
37.5
 41
0.0
 71
     5
 72
     1
  1
150
 11
0.0000000000000001
 21
1.0
 31
0.0
 73
     1
 44
1.0
  0
LINE
  5
1779
330
18
100
AcDbEntity
  8
0
 48
10.0
100
AcDbLine
 10
5309.433284945582
 20
-1444.520667971053
 30
0.0
 11
5129.433284945581
 21
-1444.520667971053
 31
0.0
  0
SOLID
  5
177A
330
18
100
AcDbEntity
  8
0
  6
ByBlock
 62
     0
 48
10.0
100
AcDbTrace
 10
5165.683266086967
 20
-1407.020667971047
 30
0.0
 11
5153.183266086969
 21
-1407.020667971047
 31
0.0
 12
5159.433266086965
 22
-1444.520667971047
 32
0.0
 13
5159.433266086965
 23
-1444.520667971047
 33
0.0
  0
ARC
  5
177B
330
18
100
AcDbEntity
  8
上線
100
AcDbCircle
 10
5512.822098553805
 20
-1394.510405462444
 30
0.0
 40
50.0
100
AcDbArc
 50
180.8184554616945
 51
270.0
  0
ARC
  5
177C
330
18
100
AcDbEntity
  8
上線
100
AcDbCircle
 10
5512.822098553805
 20
-1394.510405462444
 30
0.0
 40
60.0
100
AcDbArc
 50
180.8184554616945
 51
270.0
  0
LINE
  5
177D
330
18
100
AcDbEntity
  8
上線
 48
10.0
100
AcDbLine
 10
5703.407711651646
 20
-1454.510405462444
 30
0.0
 11
5512.822098553805
 21
-1454.510405462444
 31
0.0
  0
LINE
  5
177E
330
18
100
AcDbEntity
  8
WUWAGAKI
 48
10.0
100
AcDbLine
 10
5492.642663664933
 20
-1418.712841719729
 30
0.0
 11
5538.794398453614
 21
-1384.513782339117
 31
0.0
210
0.0
220
0.0
230
-1.0
1001
ACAD
1000
DSTYLE
1002
{
1070
    78
1070
     8
1070
   270
1070
     8
1070
   140
1040
2.5
1070
    74
1070
     0
1070
   172
1070
     1
1070
    73
1070
     0
1070
    77
1070
     1
1070
    40
1040
10.0
1070
   147
1040
0.625
1070
    42
1040
0.625
1070
    44
1040
1.25
1070
    43
1040
3.75
1070
   141
1040
2.5
1070
    41
1040
2.5
1070
   273
1070
     8
1070
   274
1070
     4
1070
   143
1040
0.0394
1070
   171
1070
     4
1002
}
  0
LINE
  5
177F
330
18
100
AcDbEntity
  8
上線
100
AcDbLine
 10
5512.822098553805
 20
-1444.510405462444
 30
0.0
 11
5703.407711651646
 21
-1444.510405462444
 31
0.0
  0
SOLID
  5
1780
330
18
100
AcDbEntity
  8
0
  6
ByBlock
 62
     0
 48
10.0
100
AcDbTrace
 10
5504.123921002144
 20
-1402.661622531921
 30
0.0
 11
5511.515291001425
 21
-1412.742180529061
 31
0.0
 12
5477.577932010367
 22
-1429.876011528345
 32
0.0
 13
5477.577932010367
 23
-1429.876011528345
 33
0.0
  0
LINE
  5
1781
330
18
100
AcDbEntity
  8
OBJECT
 48
10.0
100
AcDbLine
 10
5538.794398453614
 20
-1384.513782339117
 30
0.0
 11
5643.794398453613
 21
-1384.513782339117
 31
0.0
  0
MTEXT
  5
1782
330
18
100
AcDbEntity
  8
0
  6
ByBlock
 62
     0
 48
10.0
100
AcDbMText
 10
5591.294398453613
 20
-1354.513782339117
 30
0.0
 40
30.0
 41
0.0
 71
     5
 72
     1
  1
50R
 73
     1
 44
1.0
  0
LINE
  5
1783
330
18
100
AcDbEntity
  8
上線
100
AcDbLine
 10
5907.933266047431
 20
-1584.520667971009
 30
0.0
 11
5897.933266047431
 21
-1594.520667971009
 31
0.0
  0
LINE
  5
1784
330
18
100
AcDbEntity
  8
WUWAGAKI
100
AcDbLine
 10
8464.829173294095
 20
-2014.984305169142
 30
0.0
 11
8464.829173294095
 21
-2113.499369333748
 31
0.0
  0
LINE
  5
1785
330
18
100
AcDbEntity
  8
WUWAGAKI
100
AcDbLine
 10
8280.600746531776
 20
-2014.984305169142
 30
0.0
 11
8280.600746531776
 21
-2113.499369333748
 31
0.0
  0
LINE
  5
1786
330
18
100
AcDbEntity
  8
WUWAGAKI
100
AcDbLine
 10
7634.31478877936
 20
-1824.54763225939
 30
0.0
 11
7634.31478877936
 21
-2244.528064888959
 31
0.0
  0
LINE
  5
1787
330
18
100
AcDbEntity
  8
WUWAGAKI
100
AcDbLine
 10
7886.431260347866
 20
-1824.54763225939
 30
0.0
 11
7886.431260347866
 21
-2113.499369333748
 31
0.0
  0
LINE
  5
1788
330
18
100
AcDbEntity
  8
WUWAGAKI
100
AcDbLine
 10
8727.111363879783
 20
-2244.528064888959
 30
0.0
 11
8727.111363879783
 21
-1824.54763225939
 31
0.0
  0
LINE
  5
1789
330
18
100
AcDbEntity
  8
WUWAGAKI
100
AcDbLine
 10
7634.31478877936
 20
-2244.528064888959
 30
0.0
 11
8727.111363879783
 21
-2244.528064888959
 31
0.0
  0
LINE
  5
178A
330
18
100
AcDbEntity
  8
WUWAGAKI
100
AcDbLine
 10
7634.31478877936
 20
-2113.499369333748
 30
0.0
 11
8727.11136387978
 21
-2113.499369333748
 31
0.0
  0
TEXT
  5
178B
330
18
100
AcDbEntity
  8
WUWAGAKI
100
AcDbText
 10
7873.020221678835
 20
-2212.920498082573
 30
0.0
 40
60.0
  1
㈱　ウ　チ　コ　ン
100
AcDbText
  0
LINE
  5
178C
330
18
100
AcDbEntity
  8
WUWAGAKI
100
AcDbLine
 10
7634.31478877936
 20
-1919.077920204527
 30
0.0
 11
8724.47954154402
 21
-1919.077920204527
 31
0.0
  0
LINE
  5
178D
330
18
100
AcDbEntity
  8
WUWAGAKI
100
AcDbLine
 10
7634.31478877936
 20
-1919.077920204527
 30
0.0
 11
8724.47954154402
 21
-1919.077920204527
 31
0.0
  0
LINE
  5
178E
330
18
100
AcDbEntity
  8
WUWAGAKI
100
AcDbLine
 10
7634.31478877936
 20
-1824.54763225939
 30
0.0
 11
8727.111363879783
 21
-1824.54763225939
 31
0.0
  0
LINE
  5
178F
330
18
100
AcDbEntity
  8
WUWAGAKI
100
AcDbLine
 10
7634.31478877936
 20
-2014.984305169142
 30
0.0
 11
8727.11136387978
 21
-2014.984305169142
 31
0.0
  0
TEXT
  5
1790
330
18
100
AcDbEntity
  8
WUWAGAKI
100
AcDbText
 10
8504.829173294096
 20
-2091.01585855104
 30
0.0
 40
45.0
  1
1550㎏
100
AcDbText
  0
TEXT
  5
1791
330
18
100
AcDbEntity
  8
WUWAGAKI
100
AcDbText
 10
7911.431260347867
 20
-1993.386435442054
 30
0.0
 40
47.25
  1
300×800×120/150×2000
100
AcDbText
  0
TEXT
  5
1792
330
18
100
AcDbEntity
  8
WUWAGAKI
100
AcDbText
 10
7681.84844442806
 20
-1892.792032987012
 30
0.0
 40
45.0
  1
種　別
100
AcDbText
  0
TEXT
  5
1793
330
18
100
AcDbEntity
  8
WUWAGAKI
100
AcDbText
 10
7706.84099030272
 20
-2090.428826015475
 30
0.0
 40
45.0
  1
縮尺
100
AcDbText
  0
TEXT
  5
1794
330
18
100
AcDbEntity
  8
WUWAGAKI
100
AcDbText
 10
7679.193232541639
 20
-1993.930873023993
 30
0.0
 40
45.0
  1
寸　法
100
AcDbText
  0
TEXT
  5
1796
330
18
100
AcDbEntity
  8
WUWAGAKI
100
AcDbText
 10
7952.123533093416
 20
-2089.126910586017
 30
0.0
 40
45.0
  1
S＝　1：15
100
AcDbText
  0
TEXT
  5
1797
330
18
100
AcDbEntity
  8
WUWAGAKI
100
AcDbText
 10
8307.528522283922
 20
-2089.077473074476
 30
0.0
 40
45.0
  1
重量
100
AcDbText
  0
MTEXT
  5
1798
330
18
100
AcDbEntity
  8
上線
 48
10.0
100
AcDbMText
 10
7101.481027636066
 20
224.7348188116552
 30
0.0
 40
50.0
 41
558.2059
 71
     1
 72
     5
  1
\fＭＳ Ｐ明朝|b0|i0|c128|p18;側面図
 73
     1
 44
1.0
  0
LINE
  5
1799
330
18
100
AcDbEntity
  8
OBJECT
 48
10.0
100
AcDbLine
 10
8207.933266047431
 20
-214.5206767344307
 30
0.0
 11
6207.933266047432
 21
-214.5206767344288
 31
0.0
  0
LINE
  5
179A
330
18
100
AcDbEntity
  8
WUWAGAKI
100
AcDbLine
 10
8793.61437668774
 20
613.1222524653613
 30
0.0
 11
4522.895458060821
 21
613.1222524653613
 31
0.0
  0
LINE
  5
179B
330
18
100
AcDbEntity
  8
点線
100
AcDbLine
 10
8207.933266047431
 20
-644.5206705631517
 30
0.0
 11
6207.933266047432
 21
-644.5206705631517
 31
0.0
  0
LINE
  5
179C
330
18
100
AcDbEntity
  8
上線
 48
10.0
100
AcDbLine
 10
6207.933266047432
 20
-544.520667971009
 30
0.0
 11
8207.933266047431
 21
-544.5206679710095
 31
0.0
  0
LINE
  5
179D
330
18
100
AcDbEntity
  8
上線
100
AcDbLine
 10
7335.440373883874
 20
239.2931495463685
 30
0.0
 11
7080.42615821099
 21
239.2931495463685
 31
0.0
  0
LINE
  5
179E
330
18
100
AcDbEntity
  8
上線
100
AcDbLine
 10
7080.42615821099
 20
145.5887668003629
 30
0.0
 11
7335.440373883874
 21
145.5887668003629
 31
0.0
  0
LINE
  5
179F
330
18
100
AcDbEntity
  8
上線
100
AcDbLine
 10
7338.440373883874
 20
242.293149546369
 30
0.0
 11
7077.42615821099
 21
242.293149546369
 31
0.0
  0
LINE
  5
17A0
330
18
100
AcDbEntity
  8
上線
100
AcDbLine
 10
7077.42615821099
 20
142.5887668003629
 30
0.0
 11
7338.440373883874
 21
142.5887668003629
 31
0.0
  0
LINE
  5
17A1
330
18
100
AcDbEntity
  8
OBJECT
 48
10.0
100
AcDbLine
 10
5462.933296892167
 20
-710.5206812324358
 30
0.0
 11
5752.933296892211
 21
-710.5206812324341
 31
0.0
  0
LINE
  5
17A2
330
18
100
AcDbEntity
  8
OBJECT
 48
10.0
100
AcDbLine
 10
5337.933266047421
 20
-366.0206855373881
 30
0.0
 11
5907.933266047464
 21
-366.0206855373862
 31
0.0
  0
LINE
  5
17A3
330
18
100
AcDbEntity
  8
OBJECT
 48
10.0
100
AcDbLine
 10
5337.933266047421
 20
-216.0206767739646
 30
0.0
 11
5907.933266047464
 21
-216.0206767739646
 31
0.0
  0
SOLID
  5
17A4
330
18
100
AcDbEntity
  8
0
  6
ByBlock
 62
     0
 48
10.0
100
AcDbTrace
 10
5015.683274850387
 20
-582.0206679710313
 30
0.0
 11
5003.183274850386
 21
-582.0206679710313
 31
0.0
 12
5009.433274850387
 22
-544.5206679710313
 32
0.0
 13
5009.433274850387
 23
-544.5206679710313
 33
0.0
  0
LINE
  5
17A5
330
18
100
AcDbEntity
  8
0
 48
10.0
100
AcDbLine
 10
5309.433274850387
 20
-544.520667971009
 30
0.0
 11
4979.433274850387
 21
-544.520667971009
 31
0.0
  0
LINE
  5
17A6
330
18
100
AcDbEntity
  8
0
 48
10.0
100
AcDbLine
 10
5462.933296892167
 20
-800.5206825642089
 30
0.0
 11
5462.933296892167
 21
-680.5206825642089
 31
0.0
  0
LINE
  5
17A7
330
18
100
AcDbEntity
  8
上線
100
AcDbLine
 10
5407.933266047431
 20
-544.520667971009
 30
0.0
 11
5337.933266047431
 21
-544.520667971009
 31
0.0
  0
SOLID
  5
17A8
330
18
100
AcDbEntity
  8
0
  6
ByBlock
 62
     0
 48
10.0
100
AcDbTrace
 10
5165.683274850387
 20
-682.0205628099643
 30
0.0
 11
5153.18327485039
 21
-682.0205628099643
 31
0.0
 12
5159.433274850386
 22
-644.5205628099643
 32
0.0
 13
5159.433274850386
 23
-644.5205628099643
 33
0.0
  0
LINE
  5
17A9
330
18
100
AcDbEntity
  8
0
 48
10.0
100
AcDbLine
 10
5309.433284945582
 20
-644.520667971009
 30
0.0
 11
5129.433284945581
 21
-644.520667971009
 31
0.0
  0
MTEXT
  5
17AA
330
18
100
AcDbEntity
  8
0
  6
ByBlock
 62
     0
 48
10.0
100
AcDbMText
 10
5129.433283613808
 20
-594.520667971009
 30
0.0
 40
37.5
 41
0.0
 71
     5
 72
     1
  1
100
 11
0.0000000000000001
 21
1.0
 31
0.0
 73
     1
 44
1.0
  0
SOLID
  5
17AB
330
18
100
AcDbEntity
  8
0
  6
ByBlock
 62
     0
 48
10.0
100
AcDbTrace
 10
5153.183283613812
 20
-607.020656111877
 30
0.0
 11
5165.683283613812
 21
-607.020656111877
 31
0.0
 12
5159.433283613812
 22
-644.520656111877
 32
0.0
 13
5159.433283613812
 23
-644.520656111877
 33
0.0
  0
SOLID
  5
17AC
330
18
100
AcDbEntity
  8
0
  6
ByBlock
 62
     0
 48
10.0
100
AcDbTrace
 10
5153.183283613812
 20
-582.0206798301419
 30
0.0
 11
5165.683283613812
 21
-582.0206798301419
 31
0.0
 12
5159.433283613812
 22
-544.5206798301419
 32
0.0
 13
5159.433283613812
 23
-544.5206798301419
 33
0.0
  0
MTEXT
  5
17AD
330
18
100
AcDbEntity
  8
0
  6
ByBlock
 62
     0
 48
10.0
100
AcDbMText
 10
5607.933296892211
 20
-680.520672469016
 30
0.0
 40
37.5
 41
0.0
 71
     5
 72
     1
  1
290
 73
     1
 44
1.0
  0
SOLID
  5
17AE
330
18
100
AcDbEntity
  8
0
  6
ByBlock
 62
     0
 48
10.0
100
AcDbTrace
 10
5500.433296892174
 20
-716.7706637055935
 30
0.0
 11
5500.433296892174
 21
-704.2706637055953
 31
0.0
 12
5462.933296892174
 22
-710.5206637055917
 32
0.0
 13
5462.933296892174
 23
-710.5206637055917
 33
0.0
  0
LINE
  5
17B4
330
18
100
AcDbEntity
  8
0
 48
10.0
100
AcDbLine
 10
5337.933266047421
 20
-516.0206767739683
 30
0.0
 11
5337.933266047421
 21
-186.0206767739682
 31
0.0
  0
MTEXT
  5
17B5
330
18
100
AcDbEntity
  8
0
  6
ByBlock
 62
     0
 48
10.0
100
AcDbMText
 10
5372.93326604742
 20
-336.0206835608542
 30
0.0
 40
37.5
 41
0.0
 71
     5
 72
     1
  1
70
 73
     1
 44
1.0
  0
LINE
  5
17B6
330
18
100
AcDbEntity
  8
OBJECT
 48
10.0
100
AcDbLine
 10
5337.933254188288
 20
-366.0206855373881
 30
0.0
 11
5225.433254188288
 21
-366.0206855373881
 31
0.0
  0
SOLID
  5
17B7
330
18
100
AcDbEntity
  8
0
  6
ByBlock
 62
     0
 48
10.0
100
AcDbTrace
 10
5300.433242329134
 20
-359.7706855373917
 30
0.0
 11
5300.433242329134
 21
-372.2706855373917
 31
0.0
 12
5337.933242329134
 22
-366.0206855373917
 32
0.0
 13
5337.933242329134
 23
-366.0206855373917
 33
0.0
  0
LINE
  5
17B8
330
18
100
AcDbEntity
  8
0
 48
10.0
100
AcDbLine
 10
5457.93326604742
 20
-516.0206868691593
 30
0.0
 11
5457.93326604742
 21
-336.0206868691593
 31
0.0
  0
LINE
  5
17B9
330
18
100
AcDbEntity
  8
0
 48
10.0
100
AcDbLine
 10
5407.933259334325
 20
-516.0206928327229
 30
0.0
 11
5407.933259334325
 21
-336.0206928327229
 31
0.0
  0
LWPOLYLINE
  5
17BA
330
18
100
AcDbEntity
  8
上書線
100
AcDbPolyline
 90
        2
 70
     1
 43
3.75
 10
5406.058259334326
 20
-366.0206855373881
 42
1.0
 10
5409.808259334325
 20
-366.0206855373881
 42
1.0
  0
SOLID
  5
17BB
330
18
100
AcDbEntity
  8
0
  6
ByBlock
 62
     0
 48
10.0
100
AcDbTrace
 10
5495.433266047426
 20
-372.2706680105448
 30
0.0
 11
5495.433266047426
 21
-359.7706680105466
 31
0.0
 12
5457.933266047426
 22
-366.0206680105429
 32
0.0
 13
5457.933266047426
 23
-366.0206680105429
 33
0.0
  0
MTEXT
  5
17BC
330
18
100
AcDbEntity
  8
0
  6
ByBlock
 62
     0
 48
10.0
100
AcDbMText
 10
5432.93326604742
 20
-306.0206855373862
 30
0.0
 40
37.5
 41
0.0
 71
     5
 72
     1
  1
50
 73
     1
 44
1.0
  0
MTEXT
  5
17BD
330
18
100
AcDbEntity
  8
0
  6
ByBlock
 62
     0
 48
10.0
100
AcDbMText
 10
5607.933266047464
 20
-336.0206767739682
 30
0.0
 40
37.5
 41
0.0
 71
     5
 72
     1
  1
300
 73
     1
 44
1.0
  0
SOLID
  5
17BE
330
18
100
AcDbEntity
  8
0
  6
ByBlock
 62
     0
 48
10.0
100
AcDbTrace
 10
5375.433266047441
 20
-222.2706767739646
 30
0.0
 11
5375.433266047441
 21
-209.7706767739646
 31
0.0
 12
5337.933266047442
 22
-216.0206767739646
 32
0.0
 13
5337.933266047442
 23
-216.0206767739646
 33
0.0
  0
MTEXT
  5
17BF
330
18
100
AcDbEntity
  8
0
  6
ByBlock
 62
     0
 48
10.0
100
AcDbMText
 10
5622.933266047464
 20
-186.0206767739646
 30
0.0
 40
37.5
 41
0.0
 71
     5
 72
     1
  1
570
 73
     1
 44
1.0
  0
LINE
  5
17C0
330
18
100
AcDbEntity
  8
0
 48
10.0
100
AcDbLine
 10
5752.933296892211
 20
-800.5206825642089
 30
0.0
 11
5752.933296892211
 21
-680.5206825642089
 31
0.0
  0
SOLID
  5
17C1
330
18
100
AcDbEntity
  8
0
  6
ByBlock
 62
     0
 48
10.0
100
AcDbTrace
 10
5715.433402053256
 20
-716.7706724690142
 30
0.0
 11
5715.433402053256
 21
-704.2706724690161
 31
0.0
 12
5752.933402053256
 22
-710.5206724690124
 32
0.0
 13
5752.933402053256
 23
-710.5206724690124
 33
0.0
  0
LINE
  5
17C2
330
18
100
AcDbEntity
  8
上線
100
AcDbLine
 10
5807.933266047431
 20
-544.520667971009
 30
0.0
 11
5907.933266047431
 21
-544.520667971009
 31
0.0
  0
LINE
  5
17C8
330
18
100
AcDbEntity
  8
0
 48
10.0
100
AcDbLine
 10
5907.933266047464
 20
-516.0206767739646
 30
0.0
 11
5907.933266047464
 21
-186.0206767739646
 31
0.0
  0
LINE
  5
17C9
330
18
100
AcDbEntity
  8
0
 48
10.0
100
AcDbLine
 10
6207.933266047432
 20
-514.520667971009
 30
0.0
 11
6207.933266047432
 21
-184.520667971009
 31
0.0
  0
LINE
  5
17CA
330
18
100
AcDbEntity
  8
0
 48
10.0
100
AcDbLine
 10
5807.933266047464
 20
-516.0206767739683
 30
0.0
 11
5807.933266047464
 21
-336.0206767739682
 31
0.0
  0
LINE
  5
17CB
330
18
100
AcDbEntity
  8
0
 48
10.0
100
AcDbLine
 10
5757.933266047464
 20
-516.0206868691593
 30
0.0
 11
5757.933266047464
 21
-336.0206868691593
 31
0.0
  0
SOLID
  5
17CC
330
18
100
AcDbEntity
  8
0
  6
ByBlock
 62
     0
 48
10.0
100
AcDbTrace
 10
5870.433254188331
 20
-359.7706855373899
 30
0.0
 11
5870.433254188331
 21
-372.2706855373899
 31
0.0
 12
5907.933254188332
 22
-366.0206855373899
 32
0.0
 13
5907.933254188332
 23
-366.0206855373899
 33
0.0
  0
MTEXT
  5
17CD
330
18
100
AcDbEntity
  8
0
  6
ByBlock
 62
     0
 48
10.0
100
AcDbMText
 10
5857.933266047464
 20
-336.0206855373862
 30
0.0
 40
37.5
 41
0.0
 71
     5
 72
     1
  1
100
 73
     1
 44
1.0
  0
SOLID
  5
17CE
330
18
100
AcDbEntity
  8
0
  6
ByBlock
 62
     0
 48
10.0
100
AcDbTrace
 10
5720.433371208509
 20
-372.2706767739646
 30
0.0
 11
5720.433371208509
 21
-359.7706767739682
 31
0.0
 12
5757.933371208508
 22
-366.0206767739646
 32
0.0
 13
5757.933371208508
 23
-366.0206767739646
 33
0.0
  0
SOLID
  5
17CF
330
18
100
AcDbEntity
  8
0
  6
ByBlock
 62
     0
 48
10.0
100
AcDbTrace
 10
5845.433277906597
 20
-359.7706855373899
 30
0.0
 11
5845.433277906597
 21
-372.2706855373899
 31
0.0
 12
5807.933277906596
 22
-366.0206855373899
 32
0.0
 13
5807.933277906596
 23
-366.0206855373899
 33
0.0
  0
MTEXT
  5
17D0
330
18
100
AcDbEntity
  8
0
  6
ByBlock
 62
     0
 48
10.0
100
AcDbMText
 10
5782.933266047464
 20
-306.0206855373862
 30
0.0
 40
37.5
 41
0.0
 71
     5
 72
     1
  1
50
 73
     1
 44
1.0
  0
SOLID
  5
17D1
330
18
100
AcDbEntity
  8
0
  6
ByBlock
 62
     0
 48
10.0
100
AcDbTrace
 10
5870.433266047442
 20
-222.2706767739646
 30
0.0
 11
5870.433266047442
 21
-209.7706767739646
 31
0.0
 12
5907.933266047442
 22
-216.0206767739646
 32
0.0
 13
5907.933266047442
 23
-216.0206767739646
 33
0.0
  0
SOLID
  5
17D2
330
18
100
AcDbEntity
  8
0
  6
ByBlock
 62
     0
 48
10.0
100
AcDbTrace
 10
6245.433266047454
 20
-220.7706679710072
 30
0.0
 11
6245.433266047454
 21
-208.2706679710063
 31
0.0
 12
6207.933266047454
 22
-214.5206679710054
 32
0.0
 13
6207.933266047454
 23
-214.5206679710054
 33
0.0
  0
LINE
  5
17D3
330
18
100
AcDbEntity
  8
上線
100
AcDbLine
 10
5477.178081762124
 20
142.5887668003624
 30
0.0
 11
5738.688512022254
 21
142.5887668003624
 31
0.0
  0
LINE
  5
17D4
330
18
100
AcDbEntity
  8
上線
100
AcDbLine
 10
5480.178081762124
 20
145.5887668003624
 30
0.0
 11
5735.688512022254
 21
145.5887668003624
 31
0.0
  0
LINE
  5
17D5
330
18
100
AcDbEntity
  8
上線
100
AcDbLine
 10
5738.688512022254
 20
242.2931495463685
 30
0.0
 11
5477.178081762124
 21
242.2931495463685
 31
0.0
  0
LINE
  5
17D6
330
18
100
AcDbEntity
  8
上線
100
AcDbLine
 10
5735.688512022254
 20
239.2931495463681
 30
0.0
 11
5480.178081762124
 21
239.2931495463681
 31
0.0
  0
MTEXT
  5
17D7
330
18
100
AcDbEntity
  8
上線
 48
10.0
100
AcDbMText
 10
5501.232951187201
 20
224.7348188116548
 30
0.0
 40
50.0
 41
558.2059
 71
     1
 72
     5
  1
\fＭＳ Ｐ明朝|b0|i0|c128|p18;正面図
 73
     1
 44
1.0
  0
LINE
  5
17D8
330
18
100
AcDbEntity
  8
上線
100
AcDbLine
 10
5477.178081762124
 20
242.2931495463685
 30
0.0
 11
5477.178081762124
 21
142.5887668003624
 31
0.0
  0
LINE
  5
17D9
330
18
100
AcDbEntity
  8
上線
100
AcDbLine
 10
5480.178081762124
 20
239.2931495463681
 30
0.0
 11
5480.178081762124
 21
145.5887668003624
 31
0.0
  0
LINE
  5
17DA
330
18
100
AcDbEntity
  8
上線
100
AcDbLine
 10
5738.688512022254
 20
142.5887668003624
 30
0.0
 11
5738.688512022254
 21
242.2931495463685
 31
0.0
  0
LINE
  5
17DB
330
18
100
AcDbEntity
  8
上線
100
AcDbLine
 10
5735.688512022254
 20
145.5887668003624
 30
0.0
 11
5735.688512022254
 21
239.2931495463681
 31
0.0
  0
LINE
  5
17DC
330
18
100
AcDbEntity
  8
上線
100
AcDbLine
 10
7080.42615821099
 20
239.2931495463685
 30
0.0
 11
7080.42615821099
 21
145.5887668003629
 31
0.0
  0
LINE
  5
17DD
330
18
100
AcDbEntity
  8
上線
100
AcDbLine
 10
7077.42615821099
 20
242.293149546369
 30
0.0
 11
7077.42615821099
 21
142.5887668003629
 31
0.0
  0
MTEXT
  5
17DE
330
18
100
AcDbEntity
  8
0
  6
ByBlock
 62
     0
 48
10.0
100
AcDbMText
 10
7207.933266047432
 20
-184.5206679710081
 30
0.0
 40
37.5
 41
0.0
 71
     5
 72
     1
  1
2000
 73
     1
 44
1.0
  0
LINE
  5
17DF
330
18
100
AcDbEntity
  8
0
 48
10.0
100
AcDbLine
 10
8207.933266047431
 20
-514.520667971009
 30
0.0
 11
8207.933266047431
 21
-184.520667971009
 31
0.0
  0
SOLID
  5
17E0
330
18
100
AcDbEntity
  8
0
  6
ByBlock
 62
     0
 48
10.0
100
AcDbTrace
 10
8170.43326604741
 20
-220.7706679710072
 30
0.0
 11
8170.43326604741
 21
-208.2706679710063
 31
0.0
 12
8207.93326604741
 22
-214.5206679710054
 32
0.0
 13
8207.93326604741
 23
-214.5206679710054
 33
0.0
  0
LINE
  5
17E1
330
18
100
AcDbEntity
  8
上線
100
AcDbLine
 10
7335.440373883874
 20
145.5887668003629
 30
0.0
 11
7335.440373883874
 21
239.2931495463685
 31
0.0
  0
LINE
  5
17E2
330
18
100
AcDbEntity
  8
上線
100
AcDbLine
 10
7338.440373883874
 20
142.5887668003629
 30
0.0
 11
7338.440373883874
 21
242.293149546369
 31
0.0
  0
LINE
  5
17E9
330
18
100
AcDbEntity
  8
上線
 48
10.0
100
AcDbLine
 10
5767.751688681653
 20
-644.5104054624444
 30
0.0
 11
5763.038373718543
 21
-1395.367460869421
 31
0.0
  0
LINE
  5
17EA
330
18
100
AcDbEntity
  8
上線
 48
10.0
100
AcDbLine
 10
5757.751688681653
 20
-644.5104054624444
 30
0.0
 11
5753.039393970549
 21
-1395.224618301592
 31
0.0
  0
LINE
  5
17EB
330
18
100
AcDbEntity
  8
上線
100
AcDbLine
 10
5807.751688681653
 20
-644.5104054624444
 30
0.0
 11
5757.751688681653
 21
-644.5104054624444
 31
0.0
  0
LINE
  5
17EC
330
18
100
AcDbEntity
  8
上線
100
AcDbLine
 10
5807.751688681653
 20
-544.5104054624444
 30
0.0
 11
5807.751688681653
 21
-644.5104054624444
 31
0.0
  0
VIEWPORT
  5
17E6
330
15
100
AcDbEntity
 67
     1
  8
0
100
AcDbViewport
 10
148.5668584795323
 20
94.37231143226114
 30
0.0
 40
321.5204350009401
 41
185.3429130258444
 68
     1
 69
     1
 12
148.5668584795323
 22
94.37231143226114
 13
0.0
 23
0.0
 14
10.0
 24
10.0
 15
10.0
 25
10.0
 16
0.0
 26
0.0
 36
1.0
 17
0.0
 27
0.0
 37
0.0
 42
50.0
 43
0.0
 44
0.0
 45
185.3429130258444
 50
0.0
 51
0.0
 72
   100
 90
    32800
  1

281
     0
 71
     1
 74
     0
110
0.0
120
0.0
130
0.0
111
1.0
121
0.0
131
0.0
112
0.0
122
1.0
132
0.0
 79
     0
146
0.0
  0
VIEWPORT
  5
17E8
330
15
100
AcDbEntity
 67
     1
  8
点線
100
AcDbViewport
 10
142.5892491340637
 20
99.11291456222535
 30
0.0
 40
228.1427986145019
 41
158.5806632995605
 68
     2
 69
     2
 12
4406.846734938412
 22
779.5324627652989
 13
0.0
 23
0.0
 14
10.0
 24
10.0
 15
10.0
 25
10.0
 16
0.0
 26
0.0
 36
1.0
 17
0.0
 27
0.0
 37
0.0
 42
50.0
 43
0.0
 44
0.0
 45
6284.612673106741
 50
0.0
 51
0.0
 72
   100
 90
    32800
  1

281
     0
 71
     1
 74
     0
110
0.0
120
0.0
130
0.0
111
1.0
121
0.0
131
0.0
112
0.0
122
1.0
132
0.0
 79
     0
146
0.0
  0
ENDSEC
  0
SECTION
  2
OBJECTS
  0
DICTIONARY
  5
C
330
0
100
AcDbDictionary
281
     1
  3
ACAD_GROUP
350
D
  3
ACAD_LAYOUT
350
15BB
  3
ACAD_MLINESTYLE
350
1B
  3
ACAD_PLOTSETTINGS
350
15BC
  3
ACAD_PLOTSTYLENAME
350
15B9
  0
DICTIONARY
  5
D
102
{ACAD_REACTORS
330
C
102
}
330
C
100
AcDbDictionary
281
     1
  0
DICTIONARY
  5
15BB
102
{ACAD_REACTORS
330
C
102
}
330
C
100
AcDbDictionary
281
     1
  3
Model
350
15BD
  3
ﾚｲｱｳﾄ1
350
15BE
  0
DICTIONARY
  5
1B
102
{ACAD_REACTORS
330
C
102
}
330
C
100
AcDbDictionary
281
     1
  3
STANDARD
350
1C
  0
DICTIONARY
  5
15BC
102
{ACAD_REACTORS
330
C
102
}
330
C
100
AcDbDictionary
281
     1
  0
ACDBDICTIONARYWDFLT
  5
15B9
102
{ACAD_REACTORS
330
C
102
}
330
C
100
AcDbDictionary
281
     1
  3
Normal
350
15BA
100
AcDbDictionaryWithDefault
340
15BA
  0
LAYOUT
  5
15BD
102
{ACAD_REACTORS
330
15BB
102
}
330
15BB
100
AcDbPlotSettings
  1

  2
Canon LBP3800 LIPSLX
  4
A4
  6

 40
5.873749732971191
 41
5.873747825622558
 42
5.873748779296875
 43
5.873748779296875
 44
209.9733276367187
 45
296.9259948730469
 46
0.0
 47
0.0
 48
0.0
 49
0.0
140
0.0
141
0.0
142
1.0
143
1.0
 70
 11952
 72
     1
 73
     1
 74
     0
  7

 75
     0
147
1.0
148
-912.3607006266361
149
29.79093080531038
100
AcDbLayout
  1
Model
 70
     1
 71
     0
 10
0.0
 20
0.0
 11
12.0
 21
9.0
 12
0.0
 22
0.0
 32
0.0
 14
0.0
 24
0.0
 34
0.0
 15
0.0
 25
0.0
 35
0.0
146
0.0
 13
0.0
 23
0.0
 33
0.0
 16
1.0
 26
0.0
 36
0.0
 17
0.0
 27
1.0
 37
0.0
 76
     0
330
18
  0
LAYOUT
  5
15BE
102
{ACAD_REACTORS
330
15BB
102
}
330
15BB
100
AcDbPlotSettings
  1

  2
Canon LBP3800 LIPSLX
  4
A4
  6

 40
5.873749732971191
 41
5.873747825622558
 42
5.873748779296875
 43
5.873748779296875
 44
209.9733276367187
 45
296.9259948730469
 46
0.0
 47
0.0
 48
0.0
 49
0.0
140
0.0
141
0.0
142
1.0
143
1.0
 70
   688
 72
     1
 73
     1
 74
     5
  7

 75
    16
147
1.0
148
0.0
149
0.0
100
AcDbLayout
  1
ﾚｲｱｳﾄ1
 70
     1
 71
     1
 10
-5.873748779296875
 20
-5.873749732971191
 11
291.05224609375
 21
204.0995779037475
 12
0.0
 22
0.0
 32
0.0
 14
28.51784982681273
 24
19.82258291244505
 34
0.0
 15
256.6606484413147
 25
178.4032462120056
 35
0.0
146
0.0
 13
0.0
 23
0.0
 33
0.0
 16
1.0
 26
0.0
 36
0.0
 17
0.0
 27
1.0
 37
0.0
 76
     0
330
15
331
17E6
  0
MLINESTYLE
  5
1C
102
{ACAD_REACTORS
330
1B
102
}
330
1B
100
AcDbMlineStyle
  2
STANDARD
 70
     0
  3

 62
   256
 51
90.0
 52
90.0
 71
     2
 49
0.5
 62
   256
  6
BYLAYER
 49
-0.5
 62
   256
  6
BYLAYER
  0
ACDBPLACEHOLDER
  5
15BA
102
{ACAD_REACTORS
330
15B9
102
}
330
15B9
  0
ENDSEC
  0
EOF
